Black Ju Ju Tab - Entombed






Band:  Entombed
Album: Sons of Satan Praise the Lord
Song:  Black Ju Ju (Alice Cooper cover)

Copyright (c)  (Threeman Recordings) (2002)
Version 1.0 - (02/06/06)

Transcribed By: Steve
Email:          stephen.elvidge1@ntlworld.com


.  - palm mute           /  - slide up to
  - slide down to       ~  - vibrato
h  - hammer on           b  - Bend
p  - pull off            Suffixes for bend
t  - tap                 f  - full bend    h - half bend
ph - pinched harmonic    q  - quarter bend t - tap bend
                         p  - pre bend
*  - see comment         ^  - Hold bend    r release bend
x  - Stuccatto           ~  - vibrato bend
,  - slight palm mute    () - ghost note, sustained note
"  - tremolo note         - harmonic

Tuning D G C F A D

 Intro/Main Riff

 Guitar 1
[--------------------------------------------------|
[--------------------------------------------------|
[--------------------------------------------------|
[-9--109----4--5-4------------------4--------5-/-|
[-7--8-7----2--3-2----4--5-4----2--2--------3-/-|
[-----------------------2--3-2----0--2--------3-/-|
[Guitar 2                              h   h   h
[--------------------------------------------------|
[--------------------------------------------------|
[--------------------------------------------------|
[--------------------------------------------------|
[-7--8--7----2--3--2-------------------------------|
[-----------------------2--3--2----0-2-3p2-3p2-3/--|
[Guitar 3    
[--------------------------------------------------|
[--------------------------------------------------|
[-9--9br-----9--9br-----9--9br-----9---------------|
[--------------------------------------------------|
[--------------------------------------------------|
[--------------------------------------------------|

 Guitar 1
[--------------------------------------------------|
[--------------------------------------------------|
[--------------------------------------------------|
[-9--109----4--5-4------------------4--------5-/-|
[-7--8-7----2--3-2----4--5-4----2--2--------3-/-|
[-----------------------2--3-2----0--2--------3-/-|
[Guitar 2                              
[--------------------------------------------------|
[--------------------------------------------------|
[--------------------------------------------------|
[--------------------------------------------------|
[-7--8--7----2--3--2-------------------------------|
[-----------------------2--3--2----0--2--------3/--|
[Guitar 3    
[--------------------------------------------------|
[--------------------------------------------------|
[-9--9br-----9--9br-----9--9br-----9--b------------|
[--------------------------------------------------|
[--------------------------------------------------|
[--------------------------------------------------|


 

 Guitar 1
[--------------------------------------------------|
[--------------------------------------------------|
[--------------------------------------------------|
[-9--109----4--5-4------------------4--------5-/-|
[-7--8-7----2--3-2----4--5-4----2--2--------3-/-|
[-----------------------2--3-2----0--2--------3-/-|
[Guitar 2                              
[--------------------------------------------------|
[--------------------------------------------------|
[--------------------------------------------------|
[--------------------------------------------------|
[-7--8--7----2--3--2-------------------------------|
[-----------------------2--3--2----0--2--------3-/-|
[Guitar 3    
[--------------------------------------------------|
[--------------------------------------------------|
[-9--9br9----4--4br4-------------------------------|
[-----------------------4--4br4----2-----------2-/-|
[-------------------------------------2------------|
[--------------------------------------------------|

 Guitar 1
[--------------------------------------------------|
[--------------------------------------------------|
[--------------------------------------------------|
[-9--109----4--5-4------------------4--------5-/-|
[-7--8-7----2--3-2----4--5-4----2--2--------3-/-|
[-----------------------2--3-2----0--2--------3-/-|
[Guitar 2                             
[--------------------------------------------------|
[--------------------------------------------------|
[--------------------------------------------------|
[--------------------------------------------------|
[-7--8--7----2--3--2-------------------------------|
[-----------------------2--3--2----0--2--------3-/-|

 Verse

 Guitar 1
[----------------------------------------------------|
[----------------------------------------------------|
[--------------fade in-






Like us on Facebook