Full Of Hell Bass Tab - Entombed






Band- Entombed
Song- Full Of Hell

Tuning: Standard (E A D G)



intro
|----|----|----|---------|------|---------------|
|----|----|----|---------|------|---------------|
|----|----|----|---------|-ReSt-|-6-6-6-7-7-7-7-|
|-0~-|-0.-|-0~-|-0-0-0-0-|------|---------------|

|--------------------------|----------------------------|
|--------------------------|------------------5-8-7-5h7-|
|--------------------------|----------------7-----------|
|-0--0-0-3/5-3-0-3-6-5-3-5-|-0--0-0-3/5-3-0-------------|

|--------------------------|-----------------------------|
|--------------------------|-----------------------------|
|--------------------------|---------------6-6-6-7-7-7-7-|
|-0--0-0-3/5-3-0-3-6-5-3-5-|-0--0-0-3/5-3----------------|


verse
|-------------------------|-------------------------|
|-------------------------|-------------------------| x4
|-------------------------|-------------------------|
|-0-0-0-0-1---0-0-0-0-1/3-|-0-0-0-0-1--0--0-0-0-1/3-|


post-chorusx2
|-----------------------------------------------|------------------------|
|-----------------------------------------------|------------------------|
|-----------------------------------------------|------------------------|
|-3-3-3-3-3-3-3-3-1--1-3--0-0--0--/7--0-0--0-/7-|-3-3-3-3-3-3-3-3-6--0-3-|


chorus
|--------------------------|----------------------------|
|--------------------------|------------------5-8-7-5h7-|
|--------------------------|----------------7-----------|
|-0--0-0-3/5-3-0-3-6-5-3-5-|-0--0-0-3/5-3-0-------------|

|--------------------------|-----------------------------|
|--------------------------|-----------------------------|
|--------------------------|---------------6-6-6-7-7-7-7-|
|-0--0-0-3/5-3-0-3-6-5-3-5-|-0--0-0-3/5-3----------------|


[verse x4]


2nd post-chorus x2
|-----------------------------------------------|----------------------------------------------|
|-----------------------------------------------|----------------------------------------------|
|-----------------------------------------------|--------------------------------/9---------/9-|
|-3-3-3-3-3-3-3-3-1--1-3--0-0--0--/7--0-0--0-/7-|-3-3-3-3-3-3-3-3-6--1-3--0-0--0-----0-0--0----|

|----------------------------------------------|------------------------|
|----------------------------------------------|------------------------|
|---------------------------------/9--------/9-|------------------------|
|-3-3-3-3-3-3-3-3-1--1-3--0-0--0-----0-0--0----|-3-3-3-3-3-3-3-3-6--0-3-|


[chorus]


guitar solo/bridge
|---------------------|
|---------------------| x5
|---------------------|
|-5---3--6--0---3--1--|

|-----------------------------|
|-----------------------------|
|-----------------------------|
|-5-5---3-3-3-6-6-6-0---3--1--|

|------------------------------------------------------|
|------------------------------------------------------|
|------------------------------------------------------|
|-5-5-5-5-5-5-5-5-3--3-5--6-5-3-0-3-1-0-0--0-0-0-3/5-5-|

|---------------------------------------------------|
|---------------------------------------------------|
|---------------------------------------------------|
|-5-5-5-5-5-5-5-5-3--3-5--6-5-3-0-3-1-0-0--0-0-0-3~-|

|-------------------------|
|-------------------------|
|-------------------------|
|-5-5-5-5-5-5-5-5-8---0-3-|


[chorus] x2 - on the second repetition, play this variation

|--------------------------|----------------------------|
|--------------------------|------------------5-8-7-5h7-|
|--------------------------|----------------7-----------|
|-0--0-0-3/5-3-0-3-6-5-3-5-|-0--0-0-3/5-3-0-------------|

|--------------------------|--------------------------------------------------|
|--------------------------|--------------------------------------------------|
|--------------------------|---------------------6-------6-------6-----7-(7)-|
|-0--0-0-3/5-3-0-3-6-5-3-5-|-0--0-0-3/5-3--0-0-0---0-0-0---0-0-0---0-0--------|







Like us on Facebook