God Of Thunder Bass Tab - Entombed






Band- Entombed
Song- God of Thunder

riff1
Eb|------------|---------------|------------|-----------------|
Bb|------------|-------------3-|------------|-----------------|
 F|----5-0-3-5-|---0-5-0-3-5---|----5-0-3-5-|-1---1-3-4-3-1-3-|
 C|-00---------|-0-------------|-00---------|---3-------------|

riff2
Eb|------------|---------------|------------|-----------------|
Bb|------------|-------------3-|------------|-----------------|
 F|----5-0-3-5-|---0-5-0-3-5---|----5-0-3-5-|---0-5-0-3h5-3h5-|
 C|-00---------|-0-------------|-00---------|-0---------------|

chorus
Eb|-------------------|------------|-------------------|------------|
Bb|-------------------|------------|-------------------|---------3--|
 F|-1-1--3-3--3-3-5-5-|-1-5--------|-1-1--3-3--3-3-5-5-|-01010101-3-|
 C|-------------------|-----333335-|-------------------|------------|

ending
Eb|----|----|----|---------------------------------|---r---|-----|
Bb|----|----|----|---------------------------------|---e---|-----|
 F|----|----|----|---------------------------------|---s---|-----|
 C|-00-|-00-|-00-|-then-hit-0's-as-fast-as-you-can-|---t---|-0-0-|
                                                             wait for the drums to enter

song order:
   riff1  x2
   riff2  x1
   riff1  x1
   riff2  x1
   riff1  x1
   riff2  x1
   chorus x1
   riff1  x2
   riff2  x1
   chorus x1
   riff1  x3
   riff2  x1
   riff1  x1
   riff2  x2
   chorus x1
   riff1  x3
   ending x1






Like us on Facebook