I For An Eye ver2 Tab - Entombed






Band: Entombed
Song: I For An Eye
Album: Morning Star
Tuning:D,G,C,F,A,D (D standard)

* - palm mute
 - slide
h - hammer on
p - pull off


Intro: Riff#1
|-----------|
|-----------|
|-----------|
|--43-------|
|-521585452-|
|-3--363230-|
  *  * ***
  
  
Riff#2 Verse
|----------------------------------------------------------|
|----------------------------------------------------------|
|----------------------------------------------------------|
|----------------------------------------------------------|
|-2---------------------------2-------------------------32-|
|-0-000h1h3-000h3h5-000h5h6-000-000h1h3-000h3h5-000h5h6-10-|
    **      **      **      **  **      **      ** 


Riff#3 Chorus
|--------------------------------------------|
|--------------------------------------------|
|--------------------------------------------|
|-----1110--109---98--------------------8-|
|-2----98----87---76---2---54---43---96-|
|-0-00-----00-----00----000-0032-0021-007--|
    **     **     **    **  **    **

2nd time play Riff#1 at end

Riff#4
|---------------------------------------------------|
|---------------------------------------------------|
|---------5-------------------------5---------------|
|---4-3-------4-3-------------4-3-------4--43-------|
|-2-2-1-3---2-2-1--58-85--2-2-1-3---2-2-52158545--|
|-0---------0------36-63--0---------0---3--36323--|
                                          *  * ***


Riff#5           
|--------------------------------------------|
|--------------------------------------------|
|--------------------------------------------|
|--------------------------------------------|
|-2---53----7h8p7h8----653-2---53---3-53--8-|
|-000031000---------000431-0000310001031006-|
   ***  ***         ***     ***  *** *   **

Solo(sorry didn't tab it).

Riff#6 (solo background)
|---------------------------------------------------|
|---------------------------------------------------|
|---------------------------------------------------|
|---------------------------------------------------|
|-5--------------------3h4-5--------------------4p3-|
|-33336p4p3h4-336p4p333----33336p4p3h4-336p4p333----|
   ***        **     **     ***        **     **


Riff#7
|-------------------------------------------------|
|-------------------------------------------------|
|---------------------5h6---------------------6p5-|
|----8p6p5h6---8p6p555-------86p5h6----8p6p555----|
|-5----------------------5------------------------|
|-333-------33-----------333--------33------------|
   **       **      **    **        ****
   
  So in the solo you play:
riff#6
riff#7
riff#5

then: riff#4 ending the solo
  riff#3
  and at the end of the 4th time :

|----------------------------|
|----------------------------|
|----------------------------|
|--43------------------------|
|-5215854-----------------2--|
|-3--36326~~~~--3-6-5h6p5-0--|
  *  * **
  
  -------------------------------
  That's it! Hope you enjoy it!!
  -------------------------------






Like us on Facebook