Change The World (ver2) Tab - Eric Clapton






if youre going to try this tabs... make sure you know the song very well...
famillarize yourself with the strumming an make sur you know how to "adlib"


any corrections

email me at i2yan_dg@yahoo.com

broken chords...
so.. bear with me...


verse 1

e|---------0----------2-----------3--------3------------2--------0------
B|---------2----------x-----------0--------0------------x--------2------
G|---------1----------2-----------0--------0------------2--------1------
D|---------1----------2-----------0--------0------------2--------1------
A|---------0----------0-----------0--------0------------0--------0------
E|---------0----------0-----------0--------0------------0--------0------
        if i can    reach    the stars, pull one    down for    you
                                                              
        shine it    on my      heart,  so you      could see  the truth 




verse 2

e|---------0-----------0------------0-------0--------------0---------0-------
B|---------0-----------0------------0-------0--------------0---------0-------
G|---------2-----------4------------5-------5--------------4---------2-------
D|---------1-----------x------------x-------x--------------x---------1-------
A|---------2-----------3------------5-------5--------------3---------2-------
E|---------0-----------0------------0-------5--------------0---------0-------
       that this    love i have   inside, is it what        it         seems


e|--------0------------2------------3-------3-------2------------4-----------
B|--------2------------x------------0-------0-------x------------6-----------
G|--------1------------2------------0-------0-------2------------6-----------
D|--------1------------2------------0-------0-------2------------4-----------
A|--------0------------0------------0-------0-------0------------4-----------
E|--------0------------0------------0-------0-------0------------4-----------
       but for      now       i found, it's only   in          my dreams





Chorus
e|--------2----------------4----------------4--------------------------------
B|--------4----------------6----------------4--------------------------------
G|--------4----------------6----------------6--------------------------------
D|--------2----------------4----------------6--------------------------------
A|--------2----------------4----------------5--------------------------------
E|--------2----------------4----------------4--------------------------------
    if i can          change the          world
   i'll be the        sunlight in your    universe

e|--------2----------------4---------------4----------3-------2--------------
B|--------4----------------6---------------4----------3-------2--------------
G|--------4----------------6---------------6----------5-------4--------------
D|--------2----------------4---------------6----------5-------4--------------
A|--------2----------------4---------------5----------4-------3--------------
E|--------2----------------4---------------4----------3-------2--------------
   you would think     my love can be    some   -  thing   good


***************
e|---0-------0-----------4----3----2---------0------------------------------
B|---2-------0-----------6----5----4---------2------------------------------
G|---2-------2-----------6----5----4---------2------------------------------
D|---1-------2-----------4----3----2---------1------------------------------
A|---0-------2-----------4----3----2---------0------------------------------
E|---0-------0-----------4----3----2---------0------------------------------   
baby  if i could,     c h a n g e     the world



use tabs of verse 1
if i could be a king, even for a day
i would take you as my queen, i'll have no other way

use tabs of verse 2
and our love would rule in this kingdome we have made

till then i would be a fool, wishing for that day

repeat chorus
then twice the *********


repeat chorus again... last

ĂŽnscrie-te la newsletter


Like us on Facebook