I Get Lost Chords - Eric Clapton






I get lost
Eric Clapton

Intro riff A' (2x)-

             F#m                          E6
Bm7
|--------------------------------------------------------------2---------|
|------------2------------------------2---------------------------3------|
|----------------2-----------------------1---------------------------2---|
|--------4----------4------------2---------2-------------4-------------2-|
|----4------------------------2-----------------------2------------------|
|------------------------------------------------------------------------|

      Esus4          (E)     Esus4          E
|----------------------------------------------------|
|--------0-----------------0-------------------------|
|--------2----------(1)----2--------------1----------|
|--------2----------(2)----2--------------2----------|
|-------------------(2)-------------------2----------|
|----------------------------------------------------|


Intro riff B' (1x)-
|------------------------------------------------------------------------|
|---------7--5//-----7-------5----3/////------/320-----2--------|
|----/6-------------------6//--------------------------------2-----2---|
|----------------------------------------------------------------------4-|
|------------------------------------------------------------------------|
|------------------------------------------------------------------------|

|------------------------------------------------------------------------|
|----------75----7/9//--107////-----------/320----2--5--2------|//
|------/6--------------------------------------------------------2-------|
|------------------------------------------------------------------------|
|------------------------------------------------------------------------|
|------------------------------------------------------------------------|


Verse chords
F#m                  E6          Bm7             E
F#m                  E6          Bm7             
  (E)
Esus4    E

Chorus chords
Am            F             D                G      
       E
Am
Am            F             D                G      
       E

repeat intro riff B

Bridge chords
F                E*             E
A               Asus4        F#sus4            F#
F               E*             E
A               Asus4        A             F

Chord formations

A            0 0 2 2 2 0Asus4       0 0 2 2 3 0
Am           0 0 2 2 1 0Bm7         x 2 4 2 3 2
D            x 0 0 2 3 2E           0 2 2 1 0 0
E*           0 2 2 2 0 0E6          0 2 2 1 2 0
Esus4        0 0 2 2 0 0F           0 3 3 2 1 1
F#           2 4 4 3 2 2   F#sus4      2 2 4 4 2 2
F#m          2 4 4 2 2 2G           3 2 0 0 0 3

ĂŽnscrie-te la newsletter


Like us on Facebook