Runing On Faith Tab - Eric Clapton






#----------------------------------PLEASE NOTE---------------------------------#
#This file is the author's own work and represents their interpretation of the #
#song. You may only use this file for private study, scholarship, or research. #
#------------------------------------------------------------------------------#


Date: 19.01.2005
Tabbed by Peter Tuyp (peter.tuyp@wxs.nl)

Subject:
Eric Clapton - Runin' on faith (unplugged)

In this song Eric Clapton plays a dobro in open G tuning with slide
and Andy Fairweather Low plays a guitar in standard tuning.

The tab is about the dobro part and the chords are for guitar.
Of course, when you don't have a dobro, you can play it on a regular guitar.

When you are playing alone, you can improvise bits and pieces
of the chords in between the dobro part. Here are some chord for open G tuning.

G  = 000000
D  = 020230  or  777777 (with slide)
Em = x42002
G7 = 540003
D7 = x20210
C  = xx2010  or  xx2012  or  555555 (with slide)
F  = xx321x
B7 = x2120x
A  = 222222

Open G Tuning = D G D G B D  low to  high

The song is played with a slide.
~~~~ = slide
/ = slide up
 = slide down

Intro:
  G            D        Em                         G          D        Em           G7
  ~~~~~    ~~~~~~~~     ~    ~~~  ~ ~~~  ~~~       ~~~~~  ~~~~~  ~~    ~ ~    ~ ~ ~~~
|--------------------------------------------------1210---------------5---------------|
|-10/12----1210-10-----8---------8-----------------------10/12----------5----5-5-5/6--|
|----------------------------7/9----97--7/9--0------------------12--------------------|
|--------------------------------------------------------------------------------------|
|--------------------------------------------------------------------------------------|
|--------------------------------------------------------------------------------------|

      C                  D7                G      C         D           C            G
  ~ ~~~  ~ ~    ~~~  ~ ~~~  ~ ~    ~~~     ~    ~~~  ~    ~~~  ~    ~ ~ ~    ~~~     ~
|--------------------5---------------------5-----------------------------------------5-|
|-6-3/5---------3/5----5/7-------------------------------------------------------------|
|--------5------------------7------42--0------------5---------7----7-6-5----42--0----|
|----------5------------------7-----------------3/5--5----5/7--7-----------------------|
|-----------------------------------------------3/5-------5/7--------------------------|
|--------------------------------------------------------------------------------------|

Verse 1:
  G                D                 Em                                         D    G
                                                                         ~~~    ~~
|--------------------------------------------------------------------------------------|
|------------------------------------------------------------------------3/5----3

ĂŽnscrie-te la newsletter


Join the ranks ! LIKE us on Facebook