Singe Intro Tab - Eric Clapton






-------------0------0--------------------0------0-----------
----------0--0---2--2--0--------2-----0--0---2--2--0--------
----2-----1------2-----1--------2-----1------2-----1--------
------------------------------------------------------------
-0-----0---------------------------0------------------------
---------------------------00-------------------------00----

-------------0-----0-----0----------------------------------
--2------0---0--2--2--0--0----------------------------------
--2------1------2-----1-------------------------------------
------------------------------------------------------------
-----0------------------------------------------------------
-----------------------------------------------------------  

Tabed by Eoin Kenny
IM 100% sure that this is right even though its my first tab. 
Any comments or suggestions e-mail at omega13_eoin@hotmail.com     

ĂŽnscrie-te la newsletter


Like us on Facebook