Son Sylvia Tab - Eric Clapton






------------------------------------------------------------------------
Son & Sylvia (from Reptile Album) Eric Clapton
------------------------------------------------------------------------
Tabbed by:Josep M Pedrell
Email:jmpedrell@yahoo.es

Play  E and e strings stronger than the rest. The end of every chord is 
hardly listened so try to find out which notes are to be played heavily 
and which softer.If Ive made any mistake ,please tell me.

Tuning:

e|-------0-----------------0-----------------3-----2--------------------|
B|-----2---2---2---------2---2----2--------3---3-----3--------0-------0-|
G|---2-------2---2-----1--------1---1----2-------2----------2---2---2---|
D|--------------------------------------------------------2-------2-----|
A|------------------------------------------------------0---------------|
E|-2----------------0------------------3--------------------------------|

e|-------0-----------------0-----------------3--------3-------2---------|
B|-----2---2---2---------2---2---2---------3--------2-------0---0---0---|
G|---2-------2---2-----1-------1---1-----0--------0-------2-------2---2-|
D|------------------------------------------------------0---------------|
A|---------------------------------------------0------------------------|
E|-2----------------0-----------------0---------------------------------|

e|--------2---------------0---------------------------------------------|
B|------0---0---0-------0---0----0----------3------0---------2----------|
G|---1--------1---1---2-------2----2------2------2---------2---2---2----|
D|-0------------------------------------0-------0--------2-------2---2--|
A|------------------4-----------------2----------------0----------------|
E|--------------------------------------------0-------------------------|

e|----------------------------------------------------------------------|
B|---------0-------0------------0---------------------------------------|
G|------2----2---2------------2---2---2---------------------------------|
D|----2--------2------------2-------2-----------------------------------|
A|----------------------------------------------------------------------|
E|--2-------------------0-----------------------------------------------|




| /  slide up
|   slide down
| h  hammer-on
| p  pull-off
| ~  vibrato
| +  harmonic
| x  Mute note
=========================================================================

ĂŽnscrie-te la newsletter


Join the ranks ! LIKE us on Facebook