Sunshine Of Your Love Bass Tab - Eric Clapton






intro play 3x
G|----------------------------------------------------------
D|-8-8-6-8--------------------------------------------------
A|----------8-7-6-------------------------------------------
E|------------------6--9-6-------- 

play 2x
G|--8-8-6-8-------------------------------------------------
D|------------8-7-6-----------------------------------------
A|----------------------6-9-6-------------------------------
E|-------------------------------------------

G|----------------------------------------------------------
D|----------------------------------------------------------
A|------------------3-3-------------------------------------
E|-------5-5-------------3-3-------------------------------

this is all i know

ĂŽnscrie-te la newsletter


Like us on Facebook