Walkin Blues Tab - Eric Clapton






#----------------------------------PLEASE NOTE---------------------------------#
#This file is the author's own work and represents their interpretation of the #
#song. You may only use this file for private study, scholarship, or research. #
#------------------------------------------------------------------------------#


Date: 13.01.2005
Tabbed by Peter Tuyp (peter.tuyp@wxs.nl)

Subject:
Eric Clapton - Walkin' Blues (unplugged)

Open G Tuning = D G D G B D  low to  high

The song is played with a slide while tapping the rithm with your feet
~~~~ = slide
/ = slide up
 = slide down
x        x        x         x = taps with feet
----------|
----------|
-----5----|
-----5----|
--3//5----|   This means you play a somewhat stretched slide.
----------|  at the time you reach position 5 you play the other notes on top of it


Intro:
  G
  ~~~~~ ~~ ~~ ~~~~~ ~~ ~~ ~~~~~ ~~ ~~ ~~~~~ ~~ ~~ ~~~~~   ~~~~~ ~~~~~   ~~~~~ ~~
|-10/12-12-12-11/12-12-12-11/12-12-12-11/12-12-12-----------------------------------------0--|
|-10/12-------------------11/12-------11/12-------11/12---11/12-11/12---11/12--------x-------|
|-------------------------------------------------11/12---11/12---------------12-----x-------|
|-----------------------------------------------------------------------------12-----x-------|
|--------------------------------------------------------------------------------------------|
|--------------------------------------------------------------------------------------------|
  x           x           x           x           x             x             x      x


  G
  ~~~~~ ~~ ~~ ~~~~~ ~~ ~~ ~~~~~ ~~ ~~ ~~~~~ ~~ ~~ ~~~~~ ~~ ~~~~~ ~~ ~~~~~ ~~ ~~   ~~ ~~  
~~                                                                                      F#
|-10/12-12-12-11/12-12-12-11/12-12-12-11/12-12-12-------12-------12--------------------------|
|-10/12-------------------------------------------11/12----11/12----11/12---------12-12---11-|
|-------------------------------------------------------------------------12-12---12-12---11-|
|---------------------------------------------------------------------------------12-12---11-|
|---------------------------------------------------------------------------------12-12---11-|
|--------------------------------------------------------------------------------------------|
  x           x           x           x           x              x           x        x


  F                 C
  ~~             ~~~~
|----------x---------------------------------------------------------------------------------|
|-10-------x---------------------------------------------------------------------------------|
|-10-------x--------5------------------------------------------------------------------------|
|-10-------x--------5------------------------------------------------------------------------|
|----------------3//5--------------------------------0---------------------------------------|
|--------------------------------------------------------------------------------------------|
  x        x        x        x        x        x


  C
  ~     ~  ~     ~  ~~~    ~~~                   ~~~    ~~~~~   ~~~   ~~~
|--------------------------------------------------------------------------------------------|
|-5--------5--------5/3----0/3---------------------------------------------------------------|
|-5-----5--5-----5--5/3----0/3--0-----0------------------------------------------------------|
|-5-----5--5-----5--5/3----0/3--0-----0-----0--------0--3/53-0-2/3-0-2/3--------------------|
|-------5--------5-----------------0-------------2/4----------0-2/3-0-2/3--------------------|
|--------------------------------------------------------------------------------------------|
  x        x        x        x        x        x        x        x


  G                                   D
       ~~~ ~     ~  ~          ~~~    ~~~        ~~~    ~~~~~      ~~~
|--------------------------------------------------------------------------------------------|
|--------------------------------------------------------------------------------------------|
|--------------------------------------------------------------------------------------------|
|-0----3/5-5-----5--5-----0--------0--5/7------------0--5/75----------0---------------------|
|-0--------------------------0-2/4-------------0-2/4-------------0-2/4-----------------------|
|--------------------------------------------------------------------------------------------|
  x        x        x        x        x        x        x        x


  C                                   G        G7       G6       G+5
  ~~~        ~~~    ~~~     ~~~   ~~~
|--------------------------------------------------------------------------------------------|
|-------------------------------------------0--0-----0--0-----0--0-----0---------------------|
|-------------------------------------------0--0-----0--0-----0--0-----0---------------------|
|-3/5------------0--53---------0-----0--------3--------2--------1-----1---------------------|
|-3/5------0-2/4----53---0-2/3-0-2/3-0------------------------------------------------------|
|--------------------------------------------------------------------------------------------|
  x        x        x        x        x        x        x        x


  G              D                    G
       ~~~                        ~~~
|--------------------------------------------------------------------------------------------|
|-0------------------------------------------------------------------------------------------|
|-0------------------------------------------------------------------------------------------|
|-0--------0-----0--------0--0--------0-----0------------------------------------------------|
|------2/4------------------------3/4-0------------------------------------------------------|
|--------------------------------------------------------------------------------------------|
  x        x        x        x        x


Verse 1:
  G7       G6       G                 G7       G6       G
                         ~~~                                 ~~~
|--------------------------------------------------------------------------------------------|
|-0-----0--0-----0--0-----------------0-----0--0-----0--0------------------------------------|
|-0-----0--0-----0--0-----------------0-----0--0-----0--0------------------------------------|
|-3--------2--------0--------0-----0--3--------2--------0--------0---------------------------|
|------------------------3/4-0-------------------------------3/4-0-----0---------------------|
|--------------------------------------------------------------------------------------------|
  x        x        x        x        x        x        x        x
  Woke up this mornin'             feel 'round for my shoes.


  G7       G6       G                 G7       G6       G        C
                         ~~~                                  ~~~~
|--------------------------------------------------------------------------------------------|
|-0-----0--0-----0--0-----------------0-----0--0-----0--0------------------------------------|
|-0-----0--0-----0--0-----------------0-----0--0-----0--0--------------5---------------------|
|-3--------2--------0--------0-----0--3--------2--------0--------5-----5---------------------|
|------------------------3/4-0--------------------------------3//5---------------------------|
|--------------------------------------------------------------------------------------------|
  x        x        x        x        x        x        x        x
    You know about that, babe         had them old walkin' blues.


Verse 2:
  C                                                           G
  ~     ~  ~     ~        ~~~~     ~        ~~~~     ~~~~             ~~~
|--------------------------------------------------------------------------------------------|
|--------------------------------------------------------------------------------------------|
|-5-----5--5-----5--0--------------5--0-----------------5------------------------------------|
|-5-----5--5-----5--0--------5-----5--0-----------------5--0---------------------------------|
|-------------------------3//5--------------3//5-----3//5-----0-------2/4--------------------|
|--------------------------------------------------------------------------------------------|
  x        x        x        x        x        x        x        x
  Woke up this mornin'         I feel 'round for my  shoes.


  G                                                               D
       ~~~               ~~~     ~~~       ~~~            ~~~   ~~~
|--------------------------------------------------------------------------------------------|
|--------------------------------------------------------------------------------------------|
|----------------------------0-----------------------0------------7--------------------------|
|-0----3/5-------0-----------0--------0----3/5----------0-----0---7--------------------------|
|-------------------0-------------2/4-------------------0-2/4-0-5/7--------------------------|
|------------------------3/5-----------------------------------------------------------------|
  x        x        x        x        x        x        x        x


  D                          C                                   G
                          ~~~~        ~        ~        ~~~
|--------------------------------------------------------------------------------------------|
|--------------------------------------------------------------------------------------------|
|-------------------0-----------------5--------5--------5

ĂŽnscrie-te la newsletter


Join the ranks ! LIKE us on Facebook