Wonderful Tonight (ver2) Tab - Eric Clapton






Wounderful TonightKEY: /  = Bend Up
By Eric Clapton     / = Bend Up and then back down
     ~  = Vibrato
Lead     >> = Slide

Intro

 G   DC     DG  D
e-------------------------------------------------------------
B-------------------------------------------------------------
G--14/-12-14~--14/-12------14/-12-14~----------14/-12-14~-
D-----------------------14~-----------------------------------
A-------------------------------------------------------------
E-------------------------------------------------------------

    C       D     G
e---------------------------------------
B----------------------------13-17-15~~-
G--14/-12-----14/-12-14-16------------ # It's late in.....
D----------14---------------------------
A---------------------------------------
E---------------------------------------


# You look wounderful tonight.# 

 G   DC     D G
e-----------------------------------------------------
B------------------------------------------13-17-15~~-
G--14/-12-14~--14/-12------14/-12-14-16------------ # We go to...
D-----------------------14~---------------------------
A-----------------------------------------------------
E-----------------------------------------------------


# I feel woundreful tonight.#

 G
e------------------
B---------15-17-15-
G--14>>16----------  # I feel wounderful because...
D------------------
A------------------
E------------------


# How much I love you.#

 G   DC     D
e-----------------------------------------
B-----------------------------------------
G--14/-12-14~--14/-12------14/-12-14~~-
D-----------------------14~---------------
A-----------------------------------------
E-----------------------------------------

 G   DC   D       G
e--------------------------------------------------
B----------------------------------------13-17-15~-
G--14/-12-14~--14/-12----14/-12-14-16-----------  # It's time...
D-----------------------14-------------------------
A--------------------------------------------------
E--------------------------------------------------


# You are wounderful tonight.#

 G  D  Em
e---------------------
B---------------------
G-14/-14/-14/-12-----  # Oh my darlin', you are wounderful  
D-----------------14~-    tonight.#
A---------------------
E---------------------

Outro

 G  D      C     D G
e-----------------------------------------------------
B-------------------15---------------17~17~17~15-15~~-
G-14/-12-14~--14/----14/-12------------------------
D------------------------------14~--------------------
A-----------------------------------------------------
E-----------------------------------------------------

 G  D       C    DG
e-----------------------------------------------------
B-----------------------------------------13-17-15~~--
G-14/-12-14~--14/-12------14/-12-14-16-------------
D----------------------14~----------------------------
A-----------------------------------------------------
E-----------------------------------------------------

This is tabbed from the version on Cream of Clapton

By
Andy

ĂŽnscrie-te la newsletter


Like us on Facebook