Wonderful Tonight (ver7) Tab - Eric Clapton






Wonderful Tonight - Eric Clapton

This is a really nice song with a good melody. I spent quite long on it, but its quite a 
song. I listened to it through and played it along a few times and it's PERFECT, 
to me. I can see if it really is once it's rated.

PLEASE RATE THIS TAB!

Intro:

e]-------------------------------------------------------------12-----|
B]------------------------------------------------------12-13-----15--|
G]-----14b16b14-12-14--14b16b14-12------14b16b14-12-14----------------|
D]----------------------------------14--------------------------------|
A]--------------------------------------------------------------------|
E]---3----------------------------------------------------------------|


e]---------------------------------------------------------------11/12-12/10-|
B]---------------------------------------------------11/12-12/13-------------|
G]---14b16b14-12-14--14b16b14-12------14b16b14-13/14-------------------------|
D]-------------------------------14------------------------------------------|
A]---------------------------------------------------------------------------|
E]---------------------------------------------------------------------------|


Verse:

G                      D
    Its late in the evening

C                           D
    Shes wondering what clothes to wear

G                    D
    She puts on her make up

C                     D
    And brushes her long blonde hair

C                  D
    And then she asks me

                   Em
    Do I look alright?

               C             D            G
    And I say yes, you look wonderful tonight


Riff Again:

e]---------------------------------------------------------------11/12-12/10----|
B]---------------------------------------------------11/12-12/13----------------|
G]---14b16b14-12-14--14b16b14-12------14b16b14-13/14----------------------------|
D]-------------------------------14---------------------------------------------|
A]------------------------------------------------------------------------------|
E]------------------------------------------------------------------------------|


Verses:

G           D
   We go a party

C                D
   And everyone turns to see

G                 D
   This beautiful lady

C               D
   Is walking around with me

C                D
   And then she asks me

                   Em
   Do you feel alright?

             C            D            G
   And I say yes, I feel wonderful tonight


D          C
   I feel wonderful

       D               G         D       Em
   Because I see the love light in your eyes

            C            D
   And the wonder of it all

                C              D
   Is that you just dont realize

                G
   How much I love you

e]------------------------------------------------------------------11/12-12/10---|
B]------------------------------------------------------11/12-12/13---------------|
G]------14b16b14-12-14--14b16b14-12------14b16b14-13/14---------------------------|
D]----------------------------------14--------------------------------------------|
A]--------------------------------------------------------------------------------|
E]---3----------------------------------------------------------------------------|


e]---------------------------------------------------------------11/12-12/10----|
B]---------------------------------------------------11/12-12/13----------------|
G]---14b16b14-12-14--14b16b14-12------14b16b14-13/14----------------------------|
D]-------------------------------14---------------------------------------------|
A]------------------------------------------------------------------------------|
E]------------------------------------------------------------------------------|


G                   D
   Its time to go home now

C                   D
   And Ive got an aching head

G                     D
   So I give her the car keys

C                      D
   And she helps me to bed

C              D
   And then I tell her

                      Em
   As I turn out the light

              C                D           G
   I say my darling, you were wonderful tonight

Em        C               D            G
   Oh my darling, you are wonderful tonight


e]------------------------------------11/12-11/12----12-----|
B]--------------------------15--------------------15----15--|
G]---14b16b14--12-14--14b16b----16b14-----------------------|
D]----------------------------------------------------------|
A]----------------------------------------------------------|
E]----------------------------------------------------------|

e]---------------------------------------------------------12-----|
B]---------------------------------------------------12-13----15--|
G]---14b16b14--12-14--14b16b14-12-----14b16b14-12-14--------------|
D]--------------------------------14------------------------------|Let Ring..
A]----------------------------------------------------------------|
E]----------------------------------------------------------------|

There ya go! Enjoy!

ĂŽnscrie-te la newsletter


Like us on Facebook