Wonderful Tonight Intro Tab - Eric Clapton






Eric Clapton - Wonderful Tonight

Intro
|-------------------------|------------------------|
|-------10b(12)---8--10v--|-------10b(12)---8------|
|--6/7--------------------|--6/7---------------9v--|
|-------------------------|------------------------|
|-------------------------|------------------------|
|-------------------------|------------------------|

|-----------------------------------------------|
|-------10b(12)---8--10--10/12--12/14--16--14v--|
|--6/7------------------------------------------|
|-----------------------------------------------|
|-----------------------------------------------|
|-----------------------------------------------|

ĂŽnscrie-te la newsletter


Like us on Facebook