Worried Life Blues Intro Tab - Eric Clapton






Worried Life Blues
Eric Clapton feat Buddy Guy

This particular version:
http://uk.youtube.com/watch?v=KvablVB5Ee4

Standard tuning

Piano intro

e-----------------------------------------------------------------------|
B-------------------------------------------------------8---------------|
G-------------------------------------------------------8--10---8~~-----|
D-8h10p8h10p8h10p8h10----8h10p8h10p8h10p8h10--10----10------------------|
A-----------------------------------------------------------------------|
E----------------------8-------------------------8----------------------|

-------------------------------|
------------------8------------|
------------------8--10--8~~---|
----8h9h10----10---------------|
-10----------------------------|
-----------8-------------------|

------------------------------------------------------------|
------------------8-----------------------------------------|
------------------8--10--8~~-------10~-10~-10~-10~-10p8-----|
----8h9h10----10---------------10---------------------------|
-10---------8-----------------------------------------------|
------------------------------------------------------------|

-----------------------------------------------------------------|
-------11~-11-~11~-11~-11~-11~-11~-11~-11~-11~-11~-11~-----------|
----8--12~-12~-12~-12~-12~-12~-12~-12~-12~-12~-12~-12~------8----|
-10-----------------------------------------------------10-------|
--------------------------------------------------------------10-|
-----------------------------------------------------------------|

The next small part is difficult to tab but its fairly easy to improvise to.

--------------------------------------------------|
-/13-13~-11-8-------------------------------------|
--------------10-8-10-10b-10b-8-------------------|
--------------------------------10----------------|
-----------------------------------8h9h10-10~-----|
--------------------------------------------------|

Through the verse clapton just does this (see below) in a call and response way with the vocals:


-----------------|
----8------------|
----8--10--8~~---|
-10--------------|
-----------------|
-----------------|

ĂŽnscrie-te la newsletter


Join the ranks ! LIKE us on Facebook