Cellar Door Bass Tab - Escape The Fate






-------------------------------------------------------------------------------
     Cellar Door  Escape the Fate
-------------------------------------------------------------------------------

Tabbed By : World_War_Me
e-mail: llamas_gordas@hotmail.com
I think its standard, but Im not 100% positive
Listen to the song to get the correct timing

Verse
G|------------------------------------------------------|
D|------------------------------------------------------|
A|-6~----6~----4~----4~-4-6-6-8-66~---6~----4~------4~--|
E|------------------------------------------------------|

Pre-chorus
G|------------------------------------------------------------------------------------------|
D|------------------------------------------------------------------------------------------|
A|-2-2-2-2-2-2-2--2-2-2-2-2-2-2--2--1-1-1-1-1-1-1--1-1-1-1-1-1-1--2-2-2-2-2-2--2-2-2-2-2-2--|
E|------------------------------------------------------------------------------------------|

Cont.
G|-------------------------------------------|
D|-------------------------------------------|
A|-4-4-4-4-4-4--4-4-4-4-4-4--4-4-4-4-4-4-4~--|
E|-------------------------------------------|

Chorus (play twice)
G|----------------------------------------|
D|----------------------------------------|
A|-6-(x12)2-(x12)-1-(x12)-4-(x7)-5-(x7)--|
E|----------------------------------------|

Verse
Prechorus
Chorus
Then
G|------------------------------------------------------------------------|
D|------------------------------------------------------------------------|
A|-/2-2-2-2-2-2-2-2-2-2-2-2-/6-6-6-6-6-6-6-6-6-6-6-6(this part three x)--|
E|------------------------------------------------------------------------|

G|--------------------------------------------|
D|--------------------------------------------|
A|-2-2-2-2-2-2-2-2-2-2-2-2-2-2-2-4-4-4-4-4-4--|
E|--------------------------------------------|

Chorus again twice

| /  slide up
|   slide down
| h  hammer-on
| p  pull-off
| ~  vibrato
| +  harmonic
| x  Mute note
===============================================================================






Like us on Facebook