Guillotine (ver2) Tab - Escape The Fate






Artist; Escape the fate
Song: the guillotine
tuning: GCGCFAd


Intro:

 Guitar 1
-------------------------------------------------|
-------------------------------------------------|
-------------------------------------------------|
---4-------4----------0----------0---------------|X1
---4-------4----------0----------0---------------|
---4-------4----------0----------0---------------|


Guitar 2 (play while guitar 1 rings out each chord)
-------5--2--------2--------|
-------------2--5-----------|
----------------------------|
----------------------------|X4
----------------------------|
----------------------------|


verse:

Guitar 1
---------------------------------------|
---------------------------------------|
---------------------------------------|
---------------------------------------|X4
---------------------------------------|
444444444444444400000000222222224444444
Pm.....................................

Guitar 2
----------------------------------------------------------------------|
----------------------------------------------------------------------|
----------------------------------------------------------------------|
----------------------------------------------------------------------|X4
---5--4-----5-----7--5-----4--0----5--4----7-----7/9--4--5--4--2--0---|
----------------------------------------------------------------------|

Pre Chorus:

Guitar 2
---------------------------------------------------------------------------------|
---------------------------------------------------------------------------------|
---------------------------------------------------------------------------------|
---------------------------------------------------------------------------------|X2
-0-0-----------------2-2---------2-2----2-2-----4-4-------7-7-------2-2------2-2-|
-0-0-----------------2-2---------2-2----2-2-----4-4-------7-7-------2-2------2-2-|

GUitar 1 (come in on with guitar 2 second time)
-----------------------------------------------------------------------------------------------|
-----------------------------------------------------------------------------------------------|
-----------------------------------------------------------------------------------------------|
--7--0--6--0--4--0--9--11--9--0--7--0--6--0--4--0----7--0--6--0--4--0--11--0--9--0--7--0--6--0-|
-----------------------------------------------------------------------------------------------|
-----------------------------------------------------------------------------------------------|

Then little thing in between:

Guitar 1:
-----------------------|
-----------------------|
--18--18--18--18--16---|
---x---x---x---x---x---|
--16--16--16--16--14---|
-----------------------|

Guitar 2
-----------------------|
-----------------------|
-14--14--14--14--13----|
--x---x---x---x---x----|
-12--12--12--12--11----|
-----------------------|

Chorus:

Guitar 1
-----------------------------------------------------------------|
-----------------------------------------------------------------|
-----------------------------------------------------------------|
-0-0-0-0-0-0-0-0-0-0-0-0-0-0-0-0-2-2-2-2-2-2-2-2-4-4-4-4-4-4-4-4-|X2
-0-0-0-0-0-0-0-0-0-0-0-0-0-0-0-0-2-2-2-2-2-2-2-2-4-4-4-4-4-4-4-4-|
-0-0-0-0-0-0-0-0-0-0-0-0-0-0-0-0-2-2-2-2-2-2-2-2-4-4-4-4-4-4-4-4-|

-----------------------------------------------------------------------|
-----------------------------------------------------------------------|
-----------------------------------------------------------------------|
-7-7-7-7-7-7-7-7-9-9-9-9-x-x-x-2-2-2-2-2-0-0-0-0-0-0-0-0-0-0-2-2-2-2-2-|
-7-7-7-7-7-7-7-7-9-9-9-9-x-x-x-2-2-2-2-2-0-0-0-0-0-0-0-0-0-0-2-2-2-2-2-|
-7-7-7-7-7-7-7-7-9-9-9-9-x-x-x-2-2-2-2-2-0-0-0-0-0-0-0-0-0-0-2-2-2-2-2-|

Guitar 2
------------------------------------------------------------------------------|
------------------------------------------------------------------------------|
-14--14--14--13--13--13--9--9--14--14--14--13--13--13--9--9--9--9--9--9--9--9-|
--x---x---x---x---x---x--x--x---x---x---x---x---x---x--x--x--x--x--x--x--x--x-|
-12--12--12--11--11--11--7--7--12--12--12--11--11--11--7--7--7--7--7--7--7--7-|
------------------------------------------------------------------------------|

-----------------------------------------------------------------|
-----------------------------------------------------------------|
-11--11--11--11--11--11--11--11--11--11--14--14--14--13--13--13--|
--x---x---x---x---x---x---x---x---x---x---x---x---x---x---x---x--|
--9---9---9---9---9---9---9---9---9---9--12--12--12--11--11--11--|
-----------------------------------------------------------------|

--------------------------------------------------------------------|
--------------------------------------------------------------------|
-9--9--9--9--9--9--9--9--9--11--11--11--11--11--11--11--11--11--11--|
-x--x--x--x--x--x--x--x--x---x---x---x---x---x---x---x---x---x---x--|
-7--7--7--7--7--7--7--7--7---9---9---9---9---9---9---9---9---9---9--|
--------------------------------------------------------------------|

-------------------------------------------------------|
-------------------------------------------------------|
-14--14--14--14--14--14--14--14--16--16--16--16--------|
--x---x---x---x---x---x---x---x---x---x---x---x--x-x-x-|
-12--12--12--12--12--12--12--12--14--14--14--14--x-x-x-|
-------------------------------------------------x-x-x-|

-------------------------------------------------------------|
-------------------------------------------------------------|
-9--9--9--9--9--9--9--11--11--11--11--11--11--11--11--11--11-|
-x--x--x--x--x--x--x---x---x---x---x---x---x---x---x---x---x-|
-7--7--7--7--7--7--7---9---9---9---9---9---9---9---9---9---9-|

------------------------------------------------------------|
------------------------------------------------------------|
-14--14--14--13--13--13--9--9--14--14--14--13--13--13--9--9-|
--x---x---x---x---x---x--x--x---x---x---x---x---x---x--x--x-|
-12--12--12--11--11--11--7--7--12--12--12--11--11--11--7--7-|
------------------------------------------------------------|

Bridge:

Guitar 1
-----------------------------|
-----------------------------|
-----------------------------|
--------------------------2--|
--------------------------2--|
-0-0--0-0--0-0--0-0--0-0--2--|

Break Down:

Guitar 1
-------------------------------------------------|
-------------------------------------------------|
-------------------------------------------------|
---4-------4----------0----------0---------------|X3
---4-------4----------0----------0---------------|
---4-------4----------0----------0---------------|

Guitar 2
-------5--2--------2--------|
-------------2--5-----------|
----------------------------|
----------------------------|X12
----------------------------|
----------------------------|

Solo:


Guitar 1
--------------------------------------------------------------------|
--------------------------------------------------------------------|
--------------------------------------------------------------------|
-7-7-7-7-7-7-7-7-6-6-6-6-6-6-6-6-4-4-4-4-4-4-4-4-0-0-0-0-0-0-0-0----|
-7-7-7-7-7-7-7-7-7-7-7-7-7-7-7-7-4-4-4-4-4-4-4-4-0-0-0-0-0-0-0-0----|
-7-7-7-7-7-7-7-7-6-6-6-6-6-6-6-6-4-4-4-4-4-4-4-4-0-0-0-0-0-0-0-0----|

-----------------------------------------------------------------|
-----------------------------------------------------------------|
-----------------------------------------------------------------|
-7-7-7-7-7-7-7-7-6-6-6-6-6-6-6-6-4-4-4-4-4-4-4-4-0-0-0-0---7--6--|
-7-7-7-7-7-7-7-7-7-7-7-7-7-7-7-7-4-4-4-4-4-4-4-4-0-0-0-0---7--7--|
-7-7-7-7-7-7-7-7-6-6-6-6-6-6-6-6-4-4-4-4-4-4-4-4-0-0-0-0---7--6--|

Guitar 2 (lead)
---------------------------------16--17--19--16--17---------------------|
----------------17-------19--17----------------------17-----------------|
-------16b--14-------------------------------------------16--14--13--9--|
------------------------------------------------------------------------|
------------------------------------------------------------------------|
------------------------------------------------------------------------|

---------------------------------------------------------------------------------------------------|
-------------------------------------------------------7--7--7--9--9--9-----------------------9--9-|
----------6--6--6--7--7--7--9--9--9--7--7--7--9--9--9--------------------9--9--9--11--11--11-------|
-7--7--7-------------------------------------------------------------------------------------------|
---------------------------------------------------------------------------------------------------|
---------------------------------------------------------------------------------------------------|

---------------------------------------------------------------------------------------|
-9--10-10-10----------9-9-9-10-10-10-12-12-12-9-9-9-10-10-10-12-12-12-10--12-10-12-----|
-------------11-11-11------------------------------------------------------------------|
---------------------------------------------------------------------------------------|
---------------------------------------------------------------------------------------|
---------------------------------------------------------------------------------------|

-----------------------17--16--|
-12b--10--10--12b--10----------|
-------------------------------|
-------------------------------|
-------------------------------|
-------------------------------|






Like us on Facebook