Not Good Enough For Truth In Cliche (ver5) Tab - Escape The Fate






Not Good Enough For Truth In Cliche 
Tabed by to the end
Tuning standard: EADGBe

i know the song is played in C
but heres the way you can play in standard tuning

Intro (All Palm Muted)

Guitar 1
--------------------------|---------------------------|
--------------------------|---------------------------|
--------2-----0-----------|--------2------------------|
--------------------------|--------------3------------|
--1--3-----3-----3--1--3--|--3--3-----3-----3--3--3-1-|
--------------------------|---------------------------|

--------------------------|--------------------------|
--------------------------|--------------------------|
--------------------------|--------------------------|
--------3-----3-----------|--------3-----3-----------|
--0--3-----3-----3--0--3--|--1--3-----3-----3--1--3--|
--------------------------|--------------------------|

--------------------------|---------------------------|
--------------------------|---------------------------|
--------2-----0-----------|--------2------------------|
--------------------------|--------------3------------|
--1--3-----3-----3--1--3--|--3--3-----3-----3--3--3-1-|
--------------------------|---------------------------|

--------------------------|-------------------|
--------------------------|-------------------|
--------------------------|--2----------------|
--------3-----3-----------|--3----------------|
--0--3-----3-----3--0--3--|--1----------------|
--------------------------|-------------------|
(While guitar 1 plays,Guitar 2 Gives feedback)



Breack out
00:13

Guitar 1
--------------------------|--------------------------------|
--------------------------|--------------------------------|
--7--7-----7--7--7-----7--|---9---9------9---9---9------9--|
--x--x-----x--x--x-----x--|---x---x------x---x---x------x--|
--5--5-----5--5--5-----5--|---7---7------7---7---7------7--|
--------------------------|--------------------------------|

--------------------------|------------------------------|
--------------------------|------------------------------|
--5--5-----5--5--5-----5--|--5--10--10---9---9--7--7--5--|
--x--x-----x--x--x-----x--|--x---x---x---x---x--x--x--x--|x2
--3--3-----3--3--3-----3--|--3---8---8---7---7--5--5--3--|
--------------------------|------------------------------|


Guitar 2
--------------------------|--------------------------|
--------------------------|--------------------------|
--------------------------|--------------------------|
--3--3-----3--3--3-----3--|--5--5-----5--5--5-----5--|
--1--1-----1--1--1-----1--|--3--3-----3--3--3-----3--|
--------------------------|--------------------------|

--------------------------|--------------------------|
--------------------------|--------------------------|
--------------------------|--------------------------|
--------------------------|--3--3--3--3--3--3--3--3--|x2
--7--7-----7--7--7-----7--|--0--1--1--0--0--1--1--0--|
--5--5-----5--5--5-----5--|--------------------------|


Verse
00:26

Guitar 1
--------------------------|---------------------------|
--------------------------|---------------------------|
--------2-----0-----------|--------2------------------|
--------------------------|--------------3------------|
--1--3-----3-----3--1--3--|--3--3-----3-----3--3--3-1-|
--------------------------|---------------------------|
  *  *     *     *  *  *     *  *     *     *  *  * *

--------------------------|--------------------------|
--------------------------|--------------------------|
--------------------------|--------------------------|
--------3-----3-----------|--------3-----3-----------|x4
--0--3-----3-----3--0--3--|--1--3-----3-----3--1--3--|
--------------------------|--------------------------|
  * *      *     *  *  *     *  *     *     *  *  * 


Guitar 2
--------------------------|--------------------------|
--6-----6-----6-----6-----|--6-----6-----6-----6-----|
-----5-----5-----5-----5--|-----5-----5-----5-----5--|
--------------------------|--------------------------|
--------------------------|--------------------------|
--------------------------|--------------------------|

--------------------------|--------------------------|
--8-----8-----8-----8-----|--5-----5-----5-----5-----|
-----5-----5-----5-----5--|-----5-----5-----5-----5--|
--------------------------|--------------------------|x4
--------------------------|--------------------------|
--------------------------|--------------------------|


Chorus
00:49

Guitar 1 & 2
-------------------|-------------------|-------------------|
-------------------|-------------------|-------------------|
-------------------|-------------------|-------------------|
--3----------------|-------------------|--7----------------|
--3----------------|--3----------------|--7----------------|
--1----------------|--3----------------|--5----------------|

-------------------|
-------------------|
-------------------|
--8----------------|
--8----------------|
--6----------------|


Repeat::
{Breack out}
{Verse}
{Chorus}
{Breack out}

Bridge
02:26

Guitar 1 & 2
----------------------|----------------------|
----------------------|----------------------|
----------------------|----------------------|
--3----3----3----3----|--5----5----5----5----|
--3----3----3----3----|--5----5----5----5----|
--1----1----1----1----|--3----3----3----3----|

                                          NH
----------------------|------------------------|
----------------------|-----------------5----|
----------------------|-----------------5----|
--7----7----7----7----|--7----7----7-----------|x4
--7----7----7----7----|--7----7----7-----------|
--5----5----5----5----|--5----5----5-----------|


Part After Bridge
02:51

Guitar 2 (tone less disorted)
--------------------------|--------------------------------|
--------------------------|--------------------------------|
--7--7-----7--7--7-----7--|---9---9------9---9---9------9--|
--x--x-----x--x--x-----x--|---x---x------x---x---x------x--|
--5--5-----5--5--5-----5--|---7---7------7---7---7------7--|
--------------------------|--------------------------------|

--------------------------|------------------------------|
--------------------------|------------------------------|
--5--5-----5--5--5-----5--|--5--10--10---9---9--7--7--5--|
--x--x-----x--x--x-----x--|--x---x---x---x---x--x--x--x--|
--3--3-----3--3--3-----3--|--3---8---8---7---7--5--5--3--|
--------------------------|------------------------------|

--------------------------|--------------------------------|
--------------------------|--------------------------------|
--7--7-----7--7--7-----7--|---9---9------9---9---9------9--|
--x--x-----x--x--x-----x--|---x---x------x---x---x------x--|
--5--5-----5--5--5-----5--|---7---7------7---7---7------7--|
--------------------------|--------------------------------|

--------------------------|-------------------|
--------------------------|-------------------|
--5--5-----5--5--5-----5--|--2----------------|
--x--x-----x--x--x-----x--|--3----------------|
--3--3-----3--3--3-----3--|--1----------------|
--------------------------|-------------------|

Guitar 1 (Palm Muted)
--------------------------|---------------------------|
--------------------------|---------------------------|
--------2-----0-----------|--------2------------------|
--------------------------|--------------3------------|
--1--3-----3-----3--1--3--|--3--3-----3-----3--3--3-1-|
--------------------------|---------------------------|

--------------------------|--------------------------|
--------------------------|--------------------------|
--------------------------|--------------------------|
--------3-----3-----------|--------3-----3-----------|
--0--3-----3-----3--0--3--|--1--3-----3-----3--1--3--|
--------------------------|--------------------------|

--------------------------|---------------------------|
--------------------------|---------------------------|
--------2-----0-----------|--------2------------------|
--------------------------|--------------3------------|
--1--3-----3-----3--1--3--|--3--3-----3-----3--3--3-1-|
--------------------------|---------------------------|
        
--------------------------|-------------------|
--------------------------|-------------------|
--------------------------|--2----------------|
--------3-----3-----------|--3----------------|
--0--3-----3-----3--0--3--|--1----------------|
--------------------------|-------------------|


Guitar 1 & 2 Repeat {Breack Out} a couple of times

Guitar 3 comes in at 03:13 and plays this a couple of times
--------------------------|--------------------------|
--6-----6-----6-----6-----|--6-----6-----6-----6-----|
-----5-----5-----5-----5--|-----5-----5-----5-----5--|
--------------------------|--------------------------|
--------------------------|--------------------------|
--------------------------|--------------------------|

--------------------------|--------------------------|
--8-----8-----8-----8-----|--5-----5-----5-----5-----|
-----5-----5-----5-----5--|-----5-----5-----5-----5--|
--------------------------|--------------------------|
--------------------------|--------------------------|
--------------------------|--------------------------|


Lastly Guitar 1 & 2 finish the song playing this
---------------------|---------------------|
---------------------|---------------------|
---------------------|---------------------|
--7------5------3----|---------------------|
--7------5------3----|--3------------------|
--5------3------1----|--3------------------|

Please rate and comment.






Like us on Facebook