Ransom Tab - Escape The Fate






----------------------------------------------------------------------------
 The Ransom - Escape The Fate
----------------------------------------------------------------------------
Tabbed by: Sarah M.
Email: autumnoffering@hotmail.com

Tuning: Drop C (CGCFAD)

If you don't know how to tune your guitar to drop C, here's how.
Make sure your guitar is in STANDARD tuning before you begin.
I could've just posted the link, but I thought this would be better than having to open 
window.

1) Play the 3rd fret Low E string and the A string open. Retune the A string to match
3rd fret Low E string.
2) Play the 5th fret A string and the D string open. Retune the D string to match the 
fret A string.
3) Play the 5th fret D string and the G string open. Retune the G string to match the 
fret D string.
4) Play the 4th fret G string and the B string open. Retune the B string to match the 
fret G string.
5) Play the 5th fret B string and the High E string open. Retune the High E string to
the 5th fret B string.
6) Play the 12th fret Low E string and the D string open. Retune the 12th fret Low E to
the D string open.


This is a really, really sloppy tab..I know. I don't know how to tab things out. I'm
sure this song is not in drop d..I tried playing it in that tuning, but it just didn't
right. And of course, this is not 100% correct, but I tried. Hope you understand what 
trying to say in this tab. The excalmation marks mean the notes are staccatoed.
First tab? Yes, obviously.

Intro
D|-----------|-4-|-----------|-4-|----------|-4-|----------|-2-|-----------|
A|------5----|-T-|------8----|-T-|--------8-|-T-|--------8-|-T-|-------5---|
F|-5---------|-I-|-5---------|-I-|---5------|-I-|---5------|-I-|---5-------|
C|---7-----7-|-M-|---7-----7-|-M-|----------|-M-|----------|-M-|-----------|
G|-----------|-E-|-----------|-E-|-8---8----|-E-|-7---7----|-E-|-7---7-----|
C|-----------|-S-|-----------|-S-|----------|-S-|----------|-S-|-----------|
                  ^^^^^^On The 4th time, hit 8 (2nd string) then 5 (3rd string) instead
8 (2nd) then 7 (4th) and move into next section. Hope that makes a little sense. But if
doesn't just play what I put there 4 times..it's doesn't really matter.

D|-----------|-4-|-----------|-4-|----------|-4-|----------|-2-|-----------|
A|------5----|-T-|------8----|-T-|--------8-|-T-|--------8-|-T-|-----------|
F|-5---------|-I-|-5---------|-I-|---5------|-I-|---5------|-I-|-----5-----|
C|---7-----7-|-M-|---7-----7-|-M-|----------|-M-|----------|-M-|-----3-----|
G|-----------|-E-|-----------|-E-|-8---8----|-E-|-7---7----|-E-|-----------|
C|-----------|-S-|-----------|-S-|----------|-S-|----------|-S-|-----------|


  Play this twice and decrease PM on 2nd time.
D|----------|-16-|-----------|-16-|---------|-16-|---------|-8-|--------|8-|
A|----------|-T--|-----------|-T--|---------|-T--|---------|-T-|--------|T-|
F|----5-----|-I--|----5------|-I--|----5----|-I--|----4----|-I-|----5---|I-|
C|----7-----|-M--|----5------|-M--|----3----|-M--|----2----|-M-|----3---|M-|
G|----------|-E--|-----------|-E--|---------|-E--|---------|-E-|--------|E-|
C|----------|-S--|-----------|-S--|---------|-S--|---------|-S-|--------|S-|
    PM               PM              PM              PM           PM
D|----------|-16-|-----------|-16-|---------|-16-|---------|-8-|--------|8-|
A|----------|-T--|-----------|-T--|---------|-T--|---------|-T-|--------|T-|
F|----5-----|-I--|----5------|-I--|----5----|-I--|----4----|-I-|----5---|I-|
C|----7-----|-M--|----5------|-M--|----3----|-M--|----2----|-M-|----3---|M-|
G|----------|-E--|-----------|-E--|---------|-E--|---------|-E-|--------|E-|
C|----------|-S--|-----------|-S--|---------|-S--|---------|-S-|--------|S-|
   PM                PM               PM          decrease PM slowly.

                 Chorus played twice.
D|----------|---|------------|-16-|---------|-16-|---------|-16-|-------|16|
A|----------|---|------------|-T--|---------|-T--|---------|-T--|-------|T-|
F|----------|---|------------|-I--|---------|-I--|---------|-I--|-------|I-|
C|----7~----|---|----7-------|-M--|---10----|-M--|----3----|-M--|----5--|M-|
G|----7~----|---|----7-------|-E--|---10----|-E--|----3----|-E--|----5--|E-|
C|----7~----|---|----7-------|-S--|---10----|-S--|----3----|-S--|----5--|S-|

  end with..
D|----------|---|----------------------------------------------------------|
A|----------|---|----------------------------------------------------------|
F|----------|---|----------------------------------------------------------|
C|----7~----|---|----------------------------------------------------------|
G|----7~----|---|----------------------------------------------------------|
C|----7~----|---|----------------------------------------------------------|


  Play this whole thing twice..or 3 cause it's muffled the first time.
D|-------------------------------------------------------------------------|
A|-------------------------------------------------------------------------|
F|-------------------------------10-10-10-10-10--10-10-10-10-10-10-10-10-10|
C|-7-7-7-7-7--7-7-7-7-7--7-7-7-7-10-10-10-10-10--10-10-10-10-10-10-10-10-10|
G|-7-7-7-7-7--7-7-7-7-7--7-7-7-7-8--8--8--8--8---8--8--8--8--8--8--8--8--8-|
C|-7-7-7-7-7--7-7-7-7-7--7-7-7-7-------------------------------------------|

D|-------------------------------------------------------------------------|
A|-------------------------------------------------------------------------|
F|-7-7-7-7-7--7-7-7-7-7--7-7-7-7---9-9-9-9-9-9-9-9-10-10-10-10-10-10-10-10-|
C|-7-7-7-7-7--7-7-7-7-7--7-7-7-7---9-9-9-9-9-9-9-9-10-10-10-10-10-10-10-10-|
G|-5-5-5-5-5--5-5-5-5-5--5-5-5-5---7-7-7-7-7-7-7-7-8--8--8--8--8--8--8--8--|
C|-------------------------------------------------------------------------|


  Play Twice.
D|-------|-16-|-------|-16-|-------|-16-|-------|-8-|-------|-8-|----------|
A|-------|-T--|-------|-T--|-------|-T--|-------|-T-|-------|-T-|----------|
F|-------|-I--|-------|-I--|-------|-I--|-------|-I-|-------|-I-|----------|
C|-------|-M--|-------|-M--|-------|-M--|-------|-M-|-------|-M-|---7~-----|
G|---7---|-E--|---5---|-E--|---3---|-E--|---2---|-E-|---3---|-E-|---7~-----|
C|---7---|-S--|---5---|-S--|---3---|-S--|---2---|-S-|---3---|-S-|---7~-----|
PM...........................................
D|-------------------------------------------------------------------------|
A|--------------------------8~---------------------------------------------|
F|---------------------5-5--------------5-----5----------------------------|
C|---7-7-7~--7-7-7!-----7-7----3-3-3~------7---------3-3-3!----------------|
G|---7-7-7~--7-7-7!------------3-3-3~-----8-8---9~---3-3-3!----------------|
C|---7-7-7~--7-7-7!------------3-3-3~----------------3-3-3!----------------|

  Play Twice.
D|---------------------------------------------------------------------------|
A|---------------------------------------------------------------------------|D
F|---------------------------------------------------------------------------|
C|-7-7-7-7-7-7-7-7--7-7-7-7-7-7-7-7--5-5-5--3-3-3-3-3-3-3-5-5-5-5-5-5-5-5-5--|
G|-7-7-7-7-7-7-7-7--7-7-7-7-7-7-7-7--5-5-5--3-3-3-3-3-3-3-3-5-5-5-5-5-5-5-5--|
C|-7-7-7-7-7-7-7-7--7-7-7-7-7-7-7-7--5-5-5--3-3-3-3-3-3-3-3-5-5-5-5-5-5-5-5--|
                                     . . .
D|-------------------------------------------------------------------------|
A|---8------8-----8-----8-5----8-----8-----8------10-8---------------------|
F|-5------5-----5-----5------5-----5-----5-----5---------------------------|
C|------9-----9-----9------------9-----9-----9-----------------------------|
G|-------------------------------------------------------------------------|
C|-------------------------------------------------------------------------|


| /  slide up
|   slide down
| h  hammer-on
| p  pull-off
| ~  vibrato
| +  harmonic
| x  Mute note
============================================================================






Like us on Facebook