Situations Solo Tab - Escape The Fate






this is the sweep picking on the solo


D---------15-18p15---------------------15-18p15--------------------|
A------15------------15---------------15-----------15--------------|
F----15------------------15---------15----------------15-----------|
C-17---------------------------17--------------------------17------|
G------------------------------------------------------------------|
C------------------------------------------------------------------|


D---------12-13p12---------------------12-13p12---------------------|
A------13------------13---------------13-----------13---------------|
F----14------------------13---------14----------------14------------|
C-15---------------------------15-------------------------15--------|
G-------------------------------------------------------------------|
C-------------------------------------------------------------------|






Like us on Facebook