Gloom And How It Gets That Way Bass Tab - Every Time I Die




Gloom and How it Gets That Way                          
Every Time I Die
Bass



     S S S S S S S S S S S S S S S S    S S S S S S S S E.  E  S S S  
E||----------------------------------|-------------------------------|
B||----------------------------------|-------------------------------|
G||----------------------------------|-------------------------------|
D||----------------------------------|-------------------------------|
A||--3-0-------------3-0-------------|--3-0-------------3---3--------|
D||------3-0-3-5-3-0-----3-0-3-5-3-0-|------3-0-3-5-3-0--------0-3-0-|


  S S S S S S S S S S S S S S S S    S S S S S S S S E.  E  S S S  
----------------------------------|-------------------------------|
----------------------------------|-------------------------------|
----------------------------------|-------------------------------|
----------------------------------|-------------------------------|
--3-0-------------3-0-------------|--3-0-------------3---3--------|
------3-0-3-5-3-0-----3-0-3-5-3-0-|------3-0-3-5-3-0--------0-3-0-|


  S S S S S S S S S S S S S S S S    S S S S S S S S E.  E  S S S  
----------------------------------|-------------------------------|
----------------------------------|-------------------------------|
----------------------------------|-------------------------------|
----------------------------------|-------------------------------|
--3-0-------------3-0-------------|--3-0-------------3---3--------|
------3-0-3-5-3-0-----3-0-3-5-3-0-|------3-0-3-5-3-0--------0-3-0-|


  S S S S S S S S S S S S S S S S    S S S S S S S S E.  E  S S S       
----------------------------------|-------------------------------|----|
----------------------------------|-------------------------------|----|
----------------------------------|-------------------------------|----|
----------------------------------|-------------------------------|----|
--3-0-------------3-0-------------|--3-0-------------3---3--------|----|
------3-0-3-5-3-0-----3-0-3-5-3-0-|------3-0-3-5-3-0--------0-3-0-|----|


  H        S S S S S S S S    E.  E  S S S E.  E  S S S  
---------------------------|----------------------------|
---------------------------|----------------------------|
---------------------------|----------------------------|
---------------------------|----------------------------|
-----------3-0-------------|--3---3--------3---3--------|
---------------3-0-3-5-3-0-|---------0-3-0--------0-3-0-|


  E.  E  S S S S S S S S S S S    E.  E  S S S S S S S S S S S  
-------------------------------|-------------------------------|
-------------------------------|-------------------------------|
-------------------------------|-------------------------------|
-------------------------------|-------------------------------|
--3---3--------3-0-------------|--3---3--------3-0-------------|
---------0-3-0-----3-0-3-5-3-0-|---------0-3-0-----3-0-3-5-3-0-|


  E.  E  S S S S S S S S S S S         E.  E  S S S E.  E  S S S  
-------------------------------|----|----------------------------|
-------------------------------|----|----------------------------|
-------------------------------|----|----------------------------|
-------------------------------|----|----------------------------|
--3---3--------3-0-------------|----|--3---3--------3---3--------|
---------0-3-0-----3-0-3-5-3-0-|----|---------0-3-0--------0-3-0-|


  E.  E  S S S S S S S S S S S    E.  E  S S S E.  E  S S S  
-------------------------------|----------------------------|
-------------------------------|----------------------------|
-------------------------------|----------------------------|
-------------------------------|----------------------------|
--3---3--------3-0-------------|--3---3--------3---3--------|
---------0-3-0-----3-0-3-5-3-0-|---------0-3-0--------0-3-0-|


  E.  E  S S S S S S S S S S S    E.  E  S S S E.  E  S S S  
-------------------------------|----------------------------|
-------------------------------|----------------------------|
-------------------------------|----------------------------|
-------------------------------|----------------------------|
--3---3--------3-0-------------|--3---3--------3---3--------|
---------0-3-0-----3-0-3-5-3-0-|---------0-3-0--------0-3-0-|


  E.  E  S S S S S S S S S S S    E.  E  S S S E.  E  S S S  
-------------------------------|----------------------------|
-------------------------------|----------------------------|
-------------------------------|----------------------------|
-------------------------------|----------------------------|
--3---3--------3-0-------------|--3---3--------3---3--------|
---------0-3-0-----3-0-3-5-3-0-|---------0-3-0--------0-3-0-|


  E.  E  S S S S S S S S S S S    W                   E.  E  S S S H          
-------------------------------|-------------------|-------------------------|
-------------------------------|-------------------|-------------------------|
-------------------------------|-------------------|-------------------------|
-------------------------------|-------------------|-------------------------|
--3---3--------3-0-------------|-------------------|--3---3------------------|
---------0-3-0-----3-0-3-5-3-0-|-------------------|---------0-3-0-3b--------|


  E.  E  S S S H            E.  E  S S S H          
-------------------------|-------------------------|
-------------------------|-------------------------|
-------------------------|-------------------------|
-------------------------|-------------------------|
--3---3------------------|--3---3------------------|
---------0-3-0-3b--------|---------0-3-0-3b--------|


  E.  E  S S S S S S S S S S S    E.  E  S S S H          
-------------------------------|-------------------------|
-------------------------------|-------------------------|
-------------------------------|-------------------------|
-------------------------------|-------------------------|
--3---3--------3-0-------------|--3---3------------------|
---------0-3-0-----3-0-3-5-3-0-|---------0-3-0-3b--------|


  E.  E  S S S H            E.  E  S S S H          
-------------------------|-------------------------|
-------------------------|-------------------------|
-------------------------|-------------------------|
-------------------------|-------------------------|
--3---3------------------|--3---3------------------|
---------0-3-0-3b--------|---------0-3-0-3b--------|


  S S S S S S S S S S S S S S S S    E  Q.     E  Q.      
----------------------------------|----------------------|
----------------------------------|----------------------|
----------------------------------|----------------------|
----------3-0-2-0-----------------|----------------------|
--5-0-3-0---------3-0-------------|----------------------|
----------------------3-0-3-5-3-0-|--3---------3---------|


  E  Q.     E.  E  S S S    S S S S S S S S S S S S S S S S  
-------------------------|----------------------------------|
-------------------------|----------------------------------|
-------------------------|----------------------------------|
-------------------------|----------------------------------|
------------3---3--------|--3-0-------------3-0-------------|
--3----------------0-3-0-|------3-0-3-5-3-0-----3-0-3-5-3-0-|


  S S S S S S S S E.  E  S S S    S S S S S S S S S S S S S S S S  
-------------------------------|----------------------------------|
-------------------------------|----------------------------------|
-------------------------------|----------------------------------|
-------------------------------|----------------------------------|
--3-0-------------3---3--------|--3-0-------------3-0-------------|
------3-0-3-5-3-0--------0-3-0-|------3-0-3-5-3-0-----3-0-3-5-3-0-|


  S S S S S S S S E.  E  S S S    S S S S S S S S S S S S S S S S  
-------------------------------|----------------------------------|
-------------------------------|----------------------------------|
-------------------------------|----------------------------------|
-------------------------------|----------------------------------|
--3-0-------------3---3--------|--3-0-------------3-0-------------|
------3-0-3-5-3-0--------0-3-0-|------3-0-3-5-3-0-----3-0-3-5-3-0-|


  S S S S S S S S E.  E  S S S    Q      Q        E.  E  S S S E.  E  S S S  
-------------------------------|---------------|----------------------------|
-------------------------------|---------------|----------------------------|
-------------------------------|---------------|----------------------------|
-------------------------------|---------------|----------------------------|
--3-0-------------3---3--------|---------------|--3---3--------3---3--------|
------3-0-3-5-3-0--------0-3-0-|--3----/13----|---------0-3-0--------0-3-0-|


  E.  E  S S S S S S S S S S S    E.  E  S S S E.  E  S S S  
-------------------------------|----------------------------|
-------------------------------|----------------------------|
-------------------------------|----------------------------|
-------------------------------|----------------------------|
--3---3--------3-0-------------|--3---3--------3---3--------|
---------0-3-0-----3-0-3-5-3-0-|---------0-3-0--------0-3-0-|


  E.  E  S S S S S S S S S S S    E.  E  S S S E.  E  S S S  
-------------------------------|----------------------------|
-------------------------------|----------------------------|
-------------------------------|----------------------------|
-------------------------------|----------------------------|
--3---3--------3-0-------------|--3---3--------3---3--------|
---------0-3-0-----3-0-3-5-3-0-|---------0-3-0--------0-3-0-|


  E.  E  S S S S S S S S S S S    E.  E  S S S E.  E  S S S  
-------------------------------|----------------------------|
-------------------------------|----------------------------|
-------------------------------|----------------------------|
-------------------------------|----------------------------|
--3---3--------3-0-------------|--3---3--------3---3--------|
---------0-3-0-----3-0-3-5-3-0-|---------0-3-0--------0-3-0-|


  E.  E  S S S S S S S S S S S    Q    Q       E.  E  S S S S S S S S S S S  
-------------------------------|------------|-------------------------------|
-------------------------------|------------|-------------------------------|
-------------------------------|------------|-------------------------------|
-------------------------------|------------|-------------------------------|
--3---3--------3-0-------------|------------|--3---3--------3-0-------------|
---------0-3-0-----3-0-3-5-3-0-|--0---------|---------0-3-0-----3-0-3-5-3-0-|


  E.  E  S S S S S S S S S S S    E.  E  S S S S S S S S S S S  
-------------------------------|-------------------------------|
-------------------------------|-------------------------------|
-------------------------------|-------------------------------|
-------------------------------|-------------------------------|
--3---3--------3-0-------------|--3---3--------3-0-------------|
---------0-3-0-----3-0-3-5-3-0-|---------0-3-0-----3-0-3-5-3-0-|


  S S S S S S S S S S S S S S S S    E.  E  S S S S S S S S S S S  
----------------------------------|-------------------------------|
----------------------------------|-------------------------------|
----------------------------------|-------------------------------|
----------3-0-2-0-----------------|-------------------------------|
--5-0-3-0---------3-0-------------|--3---3--------3-0-------------|
----------------------3-0-3-5-3-0-|---------0-3-0-----3-0-3-5-3-0-|


  E.  E  S S S S S S S S S S S    E.  E  S S S S S S S S S S S  
-------------------------------|-------------------------------|
-------------------------------|-------------------------------|
-------------------------------|-------------------------------|
-------------------------------|-------------------------------|
--3---3--------3-0-------------|--3---3--------3-0-------------|
---------0-3-0-----3-0-3-5-3-0-|---------0-3-0-----3-0-3-5-3-0-|


  S S S S S S S S S S S S S S S S    S S S S S S S S S S S S S S S S  
----------------------------------|----------------------------------|
----------------------------------|----------------------------------|
----------------------------------|----------------------------------|
----------3-0-2-0-----------------|----------3-0-2-0-----------------|
--5-0-3-0---------3-0-------------|--5-0-3-0---------3-0-------------|
----------------------3-0-3-5-3-0-|----------------------3-0-3-5-3-0-|


  Q    H.             
--------------------||
--------------------||
--------------------||
--------------------||
--------------------||
--0-----------------||




Duration Legend
---------------
W - whole
H - half
Q - quarter
E - 8th
S - 16th
T - 32nd
X - 64th
. - note dotted
|-n-|  - n-tuplets


Tablature Legend
----------------
L - tied note
x - dead note
g - grace note
(n) - ghost note
> - accentuded note
NH - natural harmonic
AH - artificial harmonic
TH - tapped harmonic
SH - semi harmonic
PH - pitch harmonic
h - hammer on
p - pull off
b - bend
br - bendRelease
pb - preBend
pbr - preBendRelease
brb - bendReleaseBend
n/ - tremolo bar dip
n - tremolo bar dive
-/n - tremolo bar Release up
/n - tremolo bar inverted dip
/n - tremolo bar return
-n - tremolo bar Release down
S - shift slide
s - legato slide
/ -  slide into from below or out of upwards
 -  slide into from above or out of downwards
~ - vibrato
W - wide vibrato
tr - trill
TP - tremolo picking
T - tapping
S - slap
P - pop
< - fade in
^ - brush up
v - brush down

ĂŽnscrie-te la newsletter


Join the ranks ! LIKE us on Facebook