I Been Gone Along Time Bass Tab - Every Time I Die




I know that this tab is 100% right, not only because other tabs for this song on other 
sound totally wrong, but I just saw them live, and no forsure this is how it is played. 
RATE....CURRENTLY WORKING ON OTHER TABS FROM THIS GREAT BAND (Charlie Winger)
                                                4X
F|------------------------------------3~----------|
C|---3p0-5p0----3p0-5p0----3p0-5p0--------5-3h5---|
G|------------------------------------------------|
C|-3---------0h3--------0h3-----------------------|
            2X
F|------------|
C|------------|
G|-3-1-3-1-31-|
C|------------|
4X
F|------------------------------------3~----------|
C|---3p0-5p0----3p0-5p0----3p0-5p0--------5-3h5---|
G|------------------------------------------------|
C|-3---------0h3--------0h3-----------------------|
                         1X
F|-------------------------|
C|-------------------------|
G|-3-1-3-1-31--------------|
C|-------------------------|
                         4X
F|-------------------------|
C|-------------------------|
G|-------------------------|
C|-5-3-5-3-53--------------|
                         1X
F|-------------------------|
C|-------------------------|
G|-3-1-3-1-31--------------|
C|-------------------------|
                          4X
F|-------------------------|
C|------------------3h5----|
G|------3h5------3h5---3h5-|
C|-0-3h5----0-3h5----------|
                                                2X
F|-----------------------------------3~-----------|
C|---------------3p0-5p0-----------------5-3h5----|
G|------------------------------------------------|
C|-3-0000000-3p0----------0h300000000-------------|
           1X
F|----------|
C|----------|
G|----------|
C|-3-1-3----|
                       4X
F|------------------------|
C|---------------------3h5|
G|-------3h5-------3h5----|
C|-0-3h5-----0-3h5--------|
                        1X
F|------------------------|
C|------------------------|
G|-3-1-3-1-3--------------|
C|------------------------|
                            1X                                         2X
F|------------------3~---------|-------------------------------3~--------|
C|-----------------------5-3h5-|-----------------------------------5-3h5-|
G|-----------------------------|-----------------------------------------|
C|-0h3---0h3---0h3-------------|-0h3000000-0h3000000-0h3000000-----------|
                                                2X
F|------------------------------------3~----------|
C|---3p0-5p0----3p0-5p0----3p0-5p0--------5-3h5---|
G|------------------------------------------------|
C|-3---------0h3--------0h3-----------------------|
                          1X
F|-------------------------|
C|-------------------------|
G|-3-1-3-1-31--------------|
C|-------------------------|
                              2X
F|------------------------------|
C|------------------------------|
G|------------------------------|
C|-5-3-5-3-53-5-3-5-3-0000------|
                                                2X
F|-----------------------------------3~-----------|
C|---------------3p0-5p0-----------------5-3h5----|
G|------------------------------------------------|
C|-3-0000000-3p0----------0h300000000-------------|
            2X       1X
F|------------|-------------------------|
C|------------|-------------------------|
G|-------3-5--|---3-5---5-3-------------|
C|-----3------|-3-----3-----0-3-5--0-5-7|
                       Repeat and fade out
F|--------------------------------------|
C|--------------------------------------|
G|---------------------------------3-5--|
C|-0-3h5p0-0-0-3h5p0-0-0-3h5p0-0-3------|

ĂŽnscrie-te la newsletter


Join the ranks ! LIKE us on Facebook