Kill The Music (ver2) Tab - Every Time I Die




Urm, this was done by EvilDaffodil/Antdewar1 as a first TAB, so if yah have anything 
it and stuff my email is antdewar1@hotmail.co.uk

h = hammer on
/ = slide
p = pull off
x = mute note/sticato


e |------------------------------------------------------|
B |------------------------------------------------------|
G |------------------------------------------------------|
D |-0h3p0h3p0h3p0h3p0h3p0h3/6--0--h3p0h3/6--0--h3p0h3/6--|
A |-0h3p0h3p0h3p0h3p0h3p0h3/6--0--h3p0h3/6--0--h3p0h3/6--|
D |-0h3p0h3p0h3p0h3p0h3p0h3/6--0--h3p0h3/6--0--h3p0h3/6--|  (x2)


e |------------|
B |------------|
G |------------|
D |--3p0-------|
A |-----3------|
D |-0----0h3/5-|


e |-------------------------------------------------|
B |-------------------------------------------------|
G |-------------------------------------------------|
D |--x3-x3-x3-x3-x3-x3/6--0--h3p0h3/6--0--h3p0h3/6--|
A |--x3-x3-x3-x3-x3-x3/6--0--h3p0h3/6--0--h3p0h3/6--|
D |--x3-x3-x3-x3-x3-x3/6--0--h3p0h3/6--0--h3p0h3/6--|


e |------------------------------------------------------|
B |------------------------------------------------------|
G |------------------------------------------------------|
D |-0h3p0h3p0h3p0h3p0h3p0h3/6--0--h3p0h3/6--0--h3p0h3/6--|
A |-0h3p0h3p0h3p0h3p0h3p0h3/6--0--h3p0h3/6--0--h3p0h3/6--|
D |-0h3p0h3p0h3p0h3p0h3p0h3/6--0--h3p0h3/6--0--h3p0h3/6--|


e |------------|
B |------------|
G |------------|
D |--3p0-------|
A |-----3------|
D |-0----0h3/5-|


e |----------------------------------------------|
B |----------------------------------------------|
G |----------------------------------------------|
D |-3-/5-555---3-/5-555---3-/5-555-----3p0-------|
A |-3-/5-555---3-/5-555---3-/5-555--------3------|
D |-3-/5-555---3-/5-555---3-/5-555----0----0h3/5-|  (x2)


e |-------------------------------------------------------|
B |-------------------------------------------------------|
G |-------------------------------------------------------|
D |--3-p0h3p0h3/6--3-p0h3p0h3/6--3-p0h3p0h3/6---3p0-------|
A |--3-p0h3p0h3/6--3-p0h3p0h3/6--3-p0h3p0h3/6------3------|
D |--3-p0h3p0h3/6--3-p0h3p0h3/6--3-p0h3p0h3/6--0----0h3/5-|


e |---------------------------------------------------------------|
B |---------------------------------------------------------------|
G |---------------------------------------------------------------|
D |--3-p0h3p0h3/6--3-p0h3p0h3/6--3-p0h3p0h3/6---3p0--------3-h5p3-|
A |------------------------------------------------3-------3-h5p3-|
D |--------------------------------------------0----0h3/5--3-h5p3-|


e |------------------------------------------------------|
B |------------------------------------------------------|
G |------------------------------------------------------|
D |-0h3p0h3p0h3p0h3p0h3p0h3/6--0--h3p0h3/6--0--h3p0h3/6--|
A |-0h3p0h3p0h3p0h3p0h3p0h3/6--0--h3p0h3/6--0--h3p0h3/6--|
D |-0h3p0h3p0h3p0h3p0h3p0h3/6--0--h3p0h3/6--0--h3p0h3/6--|  (x2)


e |---------------|
B |---------------|
G |---------------|
D |--3p0----3-5p3-|
A |-----3---3-5p3-|
D |-0----0-h3-5p3-|


e |------------------------------------------------------|
B |------------------------------------------------------|
G |------------------------------------------------------|
D |-0h3p0h3p0h3p0h3p0h3p0h3/6--0--h3p0h3/6--0--h3p0h3/6--|
A |-0h3p0h3p0h3p0h3p0h3p0h3/6--0--h3p0h3/6--0--h3p0h3/6--|
D |-0h3p0h3p0h3p0h3p0h3p0h3/6--0--h3p0h3/6--0--h3p0h3/6--| (x2)


e |--------------------------------|
B |--------------------------------|
G |--------------------------------|
D |--3p0----3-5-3------------------|
A |-----3---3-5-3------------------|
D |-0----0-h3-5-3--3p0h3p0h3p0h3p0-|


e |--------------------------------------------------|
B |--------------------------------------------------|
G |--------------------------------------------------|
D |-h3p0h3/6--h3p0h3/6--0h3p0h3p0h3p0h3p0h3p0h3/6----|
A |-h3p0h3/6--h3p0h3/6--0h3p0h3p0h3p0h3p0h3p0h3/6----|
D |-h3p0h3/6--h3p0h3/6--0h3p0h3p0h3p0h3p0h3p0h3/6----|


e |--------------------------------|
B |--------------------------------|
G |--------------------------------|
D |-h3p0h3/6--h3p0h3/6---3p0-------|
A |-h3p0h3/6--h3p0h3/6------3------|
D |-h3p0h3/6--h3p0h3/6--0----0h3/5-|


e |--------------------------------------------------|
B |--------------------------------------------------|
G |--------------------------------------------------|
D |-h3p0h3/6--h3p0h3/6--0h3p0h3p0h3p0h3p0h3p0h3/6----|
A |-h3p0h3/6--h3p0h3/6--0h3p0h3p0h3p0h3p0h3p0h3/6----|
D |-h3p0h3/6--h3p0h3/6--0h3p0h3p0h3p0h3p0h3p0h3/6----|


e |--------------------------------|
B |--------------------------------|
G |--------------------------------|
D |-h3p0h3/6--h3p0h3/6---3p0-------|
A |-h3p0h3/6--h3p0h3/6------3------|
D |-h3p0h3/6--h3p0h3/6--0----0h3/5-|


e |----------------------------------------------|
B |----------------------------------------------|
G |----------------------------------------------|
D |-3-/5-555---3-/5-555---3-/5-555-----3p0-------|
A |-3-/5-555---3-/5-555---3-/5-555--------3------|
D |-3-/5-555---3-/5-555---3-/5-555----0----0h3/5-|  (x2)

e |-------------------------------------------------------|
B |-------------------------------------------------------|
G |-------------------------------------------------------|
D |--3-p0h3p0h3/6--3-p0h3p0h3/6--3-p0h3p0h3/6---3p0-------|
A |--3-p0h3p0h3/6--3-p0h3p0h3/6--3-p0h3p0h3/6------3------|
D |--3-p0h3p0h3/6--3-p0h3p0h3/6--3-p0h3p0h3/6--0----0h3/5-|

e |------------------------------------------------------------------|
B |------------------------------------------------------------------|
G |------------------------------------------------------------------|
D |--3-p0h3p0h3/6--3-p0h3p0h3/6--3-p0h3p0h3/6---3p0------------------|
A |------------------------------------------------3-----------------|
D |--------------------------------------------0----0h3/5 *let ring*-|


e |---------------------------------|
B |---------------------------------|
G |---------------------------------|
D |-0-3-5-3-------------------------|
A |-----------3-5-3-0-3-0-------3-5-|
D |-----------------------5-3---3-5-|

e |---------------------------------------|
B |---------------------------------------|
G |---------------------------------------|
D |-----------0-3-0--5-3----------3-3-3-5-|
A |-------0-3------------0-3-0----3-3-3-5-|
D |-0-3-5----------------------5--3-3-3-5-| (x2)


e |------------|
B |------------|
G |------------|
D |--3p0-------|
A |-----3------|
D |-0----0h3/5-|


e |---------------------------------------|
B |---------------------------------------|
G |---------------------------------------|
D |-----------0-3-0--5-3----------3-3-3-5-|
A |-------0-3------------0-3-0----3-3-3-5-|
D |-0-3-5----------------------5--3-3-3-5-| (x2)


e |---------------------------------|
B |---------------------------------|
G |---------------------------------|
D |---------------------------------|
A |-----------3-5-3-0-3-0-------3-5-|
D |-----------------------5-3---3-5-|


e |-------------------------|
B |-------------------------|
G |-------------------------|
D |-x3-x3-x3-x3-x3-x3-x3-x3-|
A |-x3-x3-x3-x3-x3-x3-x3-x3-|
D |-x3-x3-x3-x3-x3-x3-x3-x3-|


e |------------------------|
B |------------------------|
G |------------------------|
D |-x3-x3-x3-x3-x3-x3-x3/5-|
A |-x3-x3-x3-x3-x3-x3-x3/5-|
D |-x3-x3-x3-x3-x3-x3-x3/5-| (x3)

e |------------------|
B |------------------|
G |------------------|
D |-6-5p0-3--6-5p0-3-|
A |-6-5p0-3--6-5p0-3-|
D |-6-5p0-3--6-5p0-3-|

e |------------------------|
B |------------------------|
G |------------------------|
D |-x3-x3-x3-x3-x3-x3-x3/5-|
A |-x3-x3-x3-x3-x3-x3-x3/5-|
D |-x3-x3-x3-x3-x3-x3-x3/5-| (x2)

e |------------------|
B |------------------|
G |------------------|
D |-6-5p0-3--6-5p0-3-|
A |-6-5p0-3--6-5p0-3-|
D |-6-5p0-3--6-5p0-3-|

then do just do

e |------------------|
B |------------------|
G |------------------|
D |-6-5p0-3--6-5p0-3-|
A |-6-5p0-3--6-5p0-3-|
D |-6-5p0-3--6-5p0-3-|

until the outro (sorry i don't know the solo)

outro:

e |------------------------------------|
B |------------------------------------|
G |------------------------------------|
D |-0-3-5-3---------------------3-5-0--|
A |-----------3-5-3-0-3-0-------3-5-0--|
D |-----------------------5-3---3-5-0--|

(end)

ĂŽnscrie-te la newsletter


Join the ranks ! LIKE us on Facebook