Tusk And Temper Bass Tab - Every Time I Die




Band: Every Time I Die
Song: Tusk And Temper
Album: Gutter Phenomenon
Tabbed by: choke383
Drop D Tuning: GDAD


0:01
G|-------------------------------------------------------------------|
D|-------------------------------------------------------------------|
A|-------------------------------------------------------------------|
D|0-03330-03330-3-0-03330-03330-3-0-03330-03330-3-0-03330-03330-3-0--|


0:10
G|-----------------------------------------------------------------------------|
D|-----------------3------------------3------------------3---------------------|
A|--------3p02p03p5----------3p02p03p5----------3p02p03p5----------------------|
D|3330-3p0-----------3330-3p0-----------3330-3p0-----------3330-3330-3330-3-0--|

G|---------------------------------------------------------------------|
D|------------3--------------3-------------------3---------------------|
A|---3p02p03p5------------55--5---------3p02p03p5----------------------|
D|3p0-----------3330-0h3h5--5---3330-3p0-----------3330-3330-3330-3-0--|

G|------------------------------------------------------------|
D|3-3-3-3-3------3-3-3-3-3------3-3-3-3-3---------------------|-or just pull off 3
A|-5-5-5-5-5------5-5-5-5-5------5-5-5-5-5--------------------|
D|----------3330-----------3330-----------3330-3330--6--3--0--|x2


0:43
G|33333333333----33333333333-------------------33333333333---------------------|
D|-----------------------------------------------------------------------------|
A|-----------------------------------------------------------------------------|
D|-----------3-00-----------3-00-3330-3330-3-00-----------3-00-3330-3330-3-00--|

G|--------------33333333333----33333333333-----------------------------------|
D|---------------------------------------------------------------------------|
A|---------------------------------------------------------------------------|
D|3330-3330-3-00-----------3-00-----------3-00-3330-3330-3-00-3330-3330-3-0--|


1:08
G|-------------------------------------|
D|-------------------------------------|
A|-------------------------------------|
D|6-3-------6-3-------6-3------0h6666--|

G|-------------------------------------------------------------------|
D|-------------------------------------------------------------------|
A|-------------------------------------------------------------------|
D|0-3330-3330-3-0-3330-3330-3330-3330-3-0-3330-3330-3-0-3330-0h3333--|x2

G|-----------------------------------------------------------------------|
D|-----------------------------------------------------------------------|
A|-----------------------------------------------------------------------|
D|0-------------0h33330---------0h33330---------0h33330---------0h33330--|

G|---------------------------------------------------------|
D|---------------------------------------------------------|
A|---------------------------------------------------------|
D|3330-3330-3-0-3330-3330-3-0-3330-3330-3-0-3330--6--3--0--|


2:03
G|-----------------------------------------------------------------|
D|--------3---------------3---------------3------------------------|
A|-----55--5-----------55--5-----------55--5-----------55----------|
D|0h3h5--5---3-00-0h3h5--5---3-00-0h3h5--5---3-00-0h3h5---6--3--0--|x2


2:24
G|-------------------------------------|
D|-------------------------------------|
A|-------------------------------------|
D|6-3-------6-3-------6-3------0h6666--|

G|-------------------------------------------------------------------|
D|-------------------------------------------------------------------|
A|-------------------------------------------------------------------|
D|0-3330-3330-3-0-3330-3330-3330-3330-3-0-3330-3330-3-0-3330-0h3333--|

G|----------------------------------------------------------|
D|----------------------------------------------------------|
A|----------------------------------------------------------|
D|0-3330-3330-3-0-3330-3330-3-0-3330-3330-3-0-3330-0h33330--|


2:49
G|-----------------------------------------------------------------------------|
D|-----------------3------------------3------------------3---------------------|
A|--------3p02p03p5----------3p02p03p5----------3p02p03p5----------------------|
D|3330-3p0-----------3330-3p0-----------3330-3p0-----------3330-3330-3330-3-0--|

G|---------------------------------------------------------------------|
D|------------3--------------3-------------------3---------------------|
A|---3p02p03p5------------55--5---------3p02p03p5----------------------|
D|3p0-----------3330-0h3h5--5---3330-3p0-----------3330-3330-3330-3-0--|

G|------------------------------------------------------------|
D|3-3-3-3-3------3-3-3-3-3------3-3-3-3-3---------------------|
A|-5-5-5-5-5------5-5-5-5-5------5-5-5-5-5--------------------|
D|----------3330-----------3330-----------3330-3330--6--3--0--|

G|----------------------------------------------------------|
D|3-3-3-3-3------3-3-3-3-3------3-3-3-3-3-------------------|
A|-5-5-5-5-5------5-5-5-5-5------5-5-5-5-5------------------|
D|----------3330-----------3330-----------3330-3330--6--3---|


3:21
G|------------------------------------------|
D|------------------------------------------|
A|------------------------------------------|
D|00-00----00-00-00-00----00-00-00----6--3--|

G|------------------------------------------|
D|------------------------------------------|
A|------------------------------------------|
D|---------------x0-00----00-00-00----6--3--|

G|---------------------------------------------|
D|---------------------------------------------|
A|---------------------------------------------|
D|00-00----00-00-00-00----00-00-00----6--3--0--|



Any comments, questions or jokes send to style444@hotmail.com

ĂŽnscrie-te la newsletter


Join the ranks ! LIKE us on Facebook