Enter The Grave Intro Tab - Evile






-------------------------------------------------------------------------------
     Enter The Grave - Evile
-------------------------------------------------------------------------------
Tabbed by: Jono
Email: davtheinnkeeper@hotmail.com

Tuning: Standard


e|---------------------------------------------------------------------------|
B|---------------------------------------------------------------------------|
G|---------------------------------------------------------------------------|
D|---------------------------------------------------------------------------|
A|-------5-4-3---------5-4-3---------5-4-3---------5-4-3---------------------|
E|-0-0-0-3-2-1---0-0-0-3-2-1---0-0-0-3-2-1---0-0-0-3-2-1---------------------|
PM . . .         . . .         . . .         . . .


e|---------------------------------------------------------------------------|
B|---------------------------------------------------------------------------|
G|---------------------------------------------------------------------------|
D|---------------------------------------------------------------------------|
A|-----------------------------------------------------------------5---------|
E|-0-1-0-2-0-1-0-2-0-1-0-2-0-1-0-2-0-1-0-2-0-1-0-2-0-1-0-2-0-1-0-2-3---------|
PM . . . . . . . . . . . . . . . . . . . . . . . . . . . . . . . .


e|---------------------------------------------------------------------------|
B|---------------------------------------------------------------------------|
G|---------------------------------------------------------------------------|
D|---------------------------------------------------------------------------|
A|-----------------------------------------------------------------5---------|
E|-0-1-0-2-0-1-0-2-0-1-0-2-0-1-0-2-0-1-0-2-0-1-0-2-0-1-0-2-0-1-0-2-3---------|
PM . . . . . . . . . . . . . . . . . . . . . . . . . . . . . . . .

e|---------------------------------------------------------------------------|
B|---------------------------------------------------------------------------|
G|---------------------------------------------------------------------------|
D|---------------------------------------------------------------------------|
A|-------------5---------------5-5---------------5---------------5-5---------|
E|-0-1-0-2-0-1-3---0-1-0-2-0-1-3-3---0-1-0-2-0-1-3---0-1-0-2-0-1-3-3---------|
PM . . . . . .     . . . . . .       . . . . . .     . . . . . .


e|---------------------------------------------------------------------------|
B|---------------------------------------------------------------------------|
G|---------------------------------------------------------------------------|
D|---------------------------------------------------------------------------|
A|-----------------------5---------------------5-5---------------------------|
E|-0-0-0-0-0-0-0-0-0-0-0-3-0-0-0-0-0-0-0-0-0-0-3-3---------------------------|
PM . . . . . . . . . . .   . . . . . . . . . .


e|---------------------------------------------------------------------------|
B|---------------------------------------------------------------------------|
G|---------------------------------------------------------------------------|
D|---------------------------------------------------------------------------|
A|-----------------------5---------------------5-5---------------------------|
E|-0-0-0-0-0-0-0-0-0-0-0-3-0-0-0-0-0-0-0-0-0-0-3-3---------------------------|
PM . . . . . . . . . . .   . . . . . . . . . .


 www.evile.co.uk
 
 www.myspace.com/evileuk






Like us on Facebook