Low Rider Tab - Exodus






Exodus 
Low Rider
Fabulous Disaster
Tabbed by Kevin Cruz

Standard Tuning

E:----||---------------------------------||
B:----||---------------------------------||
G:----||-------2---4---6---9-------------||
D:----||-4-4---2---4---6---9-------------||
A:-\-||-4-4-0-0-0-2-2-4-4-7-7-7-7h9-7h9-||
E:-\-||-2-2-----------------------------||
             .   .   .   .   . .

E:----------------------||----------------||
B:-11-11-11-11-11-12-14~||-14-12-14-11----||
G:----------------------||-------------11-||
D:----------------------||----------------||
A:----------------------||----------------||
E:----------------------||----------------||

E:-11-12-14-12-11-14-12-11-14-12-11-14-12-11-12-10-8-12-10-8-12-10-8-7-8-||
B:-----------------------------------------------------------------------||
G:-----------------------------------------------------------------------||
D:-----------------------------------------------------------------------||
A:-----------------------------------------------------------------------||
E:-----------------------------------------------------------------------||

ĂŽnscrie-te la newsletter


Like us on Facebook