Army Life Bass Tab - Exploited




army life

g-------------------|
d-------------------|
a------------3-3----|
e5-535-535-5----3---|

verse

g------------------------------|
d------------------------------|
a-----------33333333-----------|
e11111111-----------5-5-5-5----|


g-------------------|
d-------------------|
a------------3-3----|
e5-535-535-5----3---|

verse

g------------------------------|
d------------------------------|
a-----------33333333-----------|
e11111111-----------5-5-5-5----|


g-------------------|
d-------------------|
a------------3-3----|
e5-535-535-5----3---|

verse

g------------------------------|
d------------------------------|
a-----------33333333-----------|
e11111111-----------5-5-5-5----|


g-------------------|
d-------------------|
a------------3-3----|
e5-535-535-5----3---|

verse

g------------------------------|
d------------------------------|
a-----------33333333-----------|
e11111111-----------5-5-5-5----|

ĂŽnscrie-te la newsletter


Join the ranks ! LIKE us on Facebook