Beat It Bass Tab - Fall Out Boy






verse 1

G|---------------------------------------------------------------------------|
D|---------------------------------------------------------------------------|
A|---------------------------------------------------------------------------|
D|---0-0-0---10-10-10-----0-0-0---10-10-10-----8-8-8----10-10-10-------------|

G|-------------------------------------------|
D|-------------------------------------------|
A|-------------------------------------------|
D|---12-12-12--10-10-10----------------------|

verse 2

G|---------------------------------------------------------------------------|
D|---------------------------------------------------------------------------|
A|---------------------------------------------------------------------------|
D|---0-0-0---10-10-10-----0-0-0---10-10-10-----8-8-8----10-10-10-------------|

G|-------------------------------------------|
D|-------------------------------------------|
A|-------------------------------------------|
D|---12-12-12--10-10-10----------------------|

chorus

I changed the chorus a little.. because I want to have a bass solo.. if u don't want to
this. u can use the verse tab. =)
G|---------------------------------------------------------------------------|
D|-------------12---15---12---14---------------------------------------------|
A|---12---15------------------------15--15--15-------------------------------|
D|---------------------------------------------------------------------------|
play this until the chorus ends.

for the solo part.. same as the verse

G|---------------------------------------------------------------------------|
D|---------------------------------------------------------------------------|
A|---------------------------------------------------------------------------|
D|---0-0-0---10-10-10-----0-0-0---10-10-10-----8-8-8----10-10-10-------------|

G|-------------------------------------------|
D|-------------------------------------------|
A|-------------------------------------------|
D|---12-12-12--10-10-10----------------------|







Like us on Facebook