Experiment In Terror Bass Tab - FANTOMAS






              Experiment in Terror - Fantomas
-------------------------------------------------------------------------------

Tabbed By : Me
e-mail: cokboydeluxejr@hotmail.com

Tuning:DADGBE

Intro:

G|----------------------------------------------------------|
D|----------------------------------------------------------|
A|----------------------------------------------------------|
E|-0-3-7-3-7--0-3-7-3-7--0-3-7-3-7--0-3-7-3-7---------------|


Verse 1:

  This luck you can't buy.  Won't touch you
G|----------------------------------------------------------|
D|----------------------------------------------------------|
A|----------------------------------------------------------|
E|-0-3-7-3-7--5-8-12-8-12--0-3-7-3-7------------------------|

   this time.     One day this   dirty stool pigeon will fly.
G|----------------------------------------------------------|
D|----------------------------------------------------------|
A|----------------------------------------------------------|
E|-7-10-14-10-14--8-12-15-12-15--7-10-14-10-14--5-8-12-8-12-|

G|----------------------------------------------------------|
D|----------------------------------------------------------|
A|----------------------------------------------------------|
E|-0-3-7-3-7------------------------------------------------|


Verse 2:
  Halos and  charmed lives.  I'll help you
G|----------------------------------------------------------|
D|----------------------------------------------------------|
A|----------------------------------------------------------|
E|-0-3-7-3-7--5-8-12-8-12--0-3-7-3-7------------------------|

   next time.     One day this   dirty   stool  pigeon will fly
G|----------------------------------------------------------|
D|----------------------------------------------------------|
A|----------------------------------------------------------|
E|-7-10-14-10-14--8-12-15-12-15--7-10-14-10-14--5-8-12-8-12-|

G|----------------------------------------------------------|
D|----------------------------------------------------------|
A|----------------------------------------------------------|
E|-0-3-7-3-7------------------------------------------------|


Bridge:
   And          hear           the           angels
G|----------------------------------------------------------|
D|----------------------------------------------------------|
A|----------------------------------------------------------|
E|-3-3-3-3-3-3-3-3-3-3-3-3-3-3-3-3-3-3-3-3-3-3-3-3----------|

   sing
G|----------------------------------------------------------|
D|----------------------------------------------------------|
A|----------------------------------------------------------|
E|-2-2-2-2-2-2-2-2-2-2-2-2-2-2-2-2-2-2-2-2-2-7-7-7-7-7-7----|

  Reach        out        and       spread      my
G|----------------------------------------------------------|
D|----------------------------------------------------------|
A|----------------------------------------------------------|
E|-3-3-3-3-3-3-3-3-3-3-3-3-3-3-3-3-3-3-3-3-3-3-3-3----------|
 
  wings                  in  hell
G|----------------------------------------------------------|
D|----------------------------------------------------------|
A|----------------------------------------------------------|
E|-2-2-2-2-2-2-2-2-2-2-2-2-2-2-2-2-2-2-2-2-2-7-7-7-7-7-7----|


Verse 3:
  Your luck   has run dry.  Caught in the 
G|----------------------------------------------------------|
D|----------------------------------------------------------|
A|----------------------------------------------------------|
E|-0-3-7-3-7--5-8-12-8-12--0-3-7-3-7------------------------|

   bulls-eye.     Today    this   pretty little birdie
G|----------------------------------------------------------|
D|----------------------------------------------------------|
A|----------------------------------------------------------|
E|-7-10-14-10-14--8-12-15-12-15--7-10-14-10-14--5-8-12-8-12-|

           will die.     Will
G|----------------------------------------------------------|
D|----------------------------------------------------------|
A|----------------------------------------------------------|
E|-7-10-14-10-14--0-3-7-3-7---------------------------------|

Outro:
die. Will die. 
G|----------------------------------------------------------|
D|----------------------------------------------------------|
A|----------------------------------------------------------|
E|-0-3-7-3-7--0-3-7-3-7--0-3-7-3-7--0-3-7-3-7---------------|

No singing tonight






Like us on Facebook