First One On The Blog Tab - Farewell




 I learned this by ear, but I am really sure that it is right. This is my first 
tab. Hope  you think so too. 

 Intro
Guitar 1 - Lead - Drop D tuning
e-------------------------------------------------------------------------
B--3333333111111--3333333111111---4444444111111--4444444111111------------
G--3333333333333--3333333333333---3333333333333--3333333333333------------
D-------------------------------------------------------------------------
A-------------------------------------------------------------------------
D-------------------------------------------------------------------------

Guitar 2 - Rhythm - Standard
e--------------------------------------------------------------------------
B-------------------------------------------------------------------------
G--3333333--------3333333-----3--8888888---------8888888------------------
D--3333333--------3333333-----33-8888888---------8888888------------------
A--1111111--------1111111-----13-6666666---------6666666------------------
E------------------------------1------------------------------------------

  Verse1
Guitar 1
e--------------------------------------------------------------------------
B---6--3-----6--3-----34--4-3--4-3-1-----6--3-----6--3-----34--4-3--4-3-1-
G---------3--------3---------------------------3--------3-----------------
D-------------------------------------------------------------------------
A-------------------------------------------------------------------------
D-------------------------------------------------------------------------

Guitar 2
e--------------------------------------------------------------------------
B-------------------------------------------------------------------------
G--33333333333333333333333333333333------88888888888888888888888888888888-
D--333333333333333333333333333333333333--88888888888888888888888888888888-
A--111111111111111111111111111111113333--66666666666666666666666666666666-
E----------------------------------1111-----------------------------------

Guitar 1
e-------------------------------------------------------------------------
B--3333333111111--3333333-------------------------------------------------
G--3333333333333--3333333-------------------------------------------------
D-------------------------------------------------------------------------
A-------------------------------------------------------------------------
E-------------------------------------------------------------------------

 Bridge A
Guitar 1
e-------------------------------------------------------------------------
B-------------------------------------------------------------------------
G------------------33333333--------------------------33333333-------------
D--33333333333333333333333311111111--33333333333333333333333311111111-----
A--33333333333333331111111111111111--33333333333333331111111111111111-----
D--3333333333333333--------11111111--3333333333333333--------11111111-----

Guitar 2
e-------------------------------------------------------------------------
B-------------------------------------------------------------------------
G------------------3333333388888888------------------3333333388888888-----
D--33333333333333333333333388888888--33333333333333333333333388888888-----
A--33333333333333331111111166666666--33333333333333331111111166666666-----
E--1111111111111111------------------1111111111111111---------------------

 Chorus
Guitar 1
e-------------------------------------------------------------------------
B--3333333111111--3333333111111--4444444111111--4444444111111-------------
G--3333333333333--3333333333333--3333333333333--3333333333333-------------
D-------------------------------------------------------------------------
A-------------------------------------------------------------------------
D-------------------------------------------------------------------------

Guitar 2
e--------------------------------------------------------------------------
B-------------------------------------------------------------------------
G--3333333--------3333333---3---8888888--------8888888--------------------
D--3333333--------3333333---33--8888888--------8888888--------------------
A--1111111--------1111111---13--6666666--------6666666--------------------
E----------------------------1--------------------------------------------

 Verse2
Guitar 1
e-------------------------------------------------------------------------
B--xx6-x6-6-x6--343--xx6-x6-6-x6--343--xx6-x6-6-x6--343--xx6-x6-6-x6--343-
G-------------------------------------------------------------------------
D-------------------------------------------------------------------------
A-------------------------------------------------------------------------
E-------------------------------------------------------------------------

 Bridge A x1

 Chorus x2

 Bridge B
Guitar 1
e-------------------------------------------------------------------------
B-------------------------------------------------------------------------
G-------------------------------------------------------------------------
D--55555555333333331111111111111333355555555333333331111------------------
A--55555555333333331111111111111333355555555333333331111------------------
D--55555555333333331111111111111333355555555333333331111------------------

Guitar 2
e-------------------------------------------------------------------------
B-------------------------------------------------------------------------
G------------------8888888888888--------------------8888------------------
D--55555555333333338888888888888333355555555333333338888------------------
A--55555555333333336666666666666333355555555333333336666------------------
E--3333333311111111-------------11113333333311111111----------------------

 Jumbled-up chorus
Guitars 1&2
e-------------------------------------------------------------------------
B--------------------------------------------3333333--------3333333-------
G--33----3333-----3------------------------3-3333333--3333--3333333-3-----
D--33----3333-----33----1----1111--xxxxxxxx33---------3333----------33----
A--11----1111-----13----1----1111--xxxxxxxx13---------1111----------13----
D------------------3----1----1111--xxxxxxxx-3------------------------3----

Guitar 1
e-------------------------------------------------------------------------
B--4444444111111--4444444111111-------------------------------------------
G--3333333333333--3333333333333-------------------------------------------
D--------------------------------------3333--3333--3333--3333--3333--3333-
A--------------------------------------1111--1111--1111--1111--1111--1111-
D--------------------------------------------0000--1111--------0000--1111-

 Bridge B x1 DON'T DO THE REPEAT

 Outro
Guitar 1
e-------------------------------------------------------------------------
B-------------------------------------------------------------------------
G-------------------------------------------------------------------------
D--3-xxx-3-xxx-3----3-xxx-3-xxx-3-----------------------------------------
A--1-xxx-1-xxx-1----1-xxx-1-xxx-1-----------------------------------------
D----xxx-0-xxx-1------xxx-0-xxx-1-----------------------------------------




     Hope you guys enjoy. Rate 5 stars. *****

 --x--dead strum--

ĂŽnscrie-te la newsletter


Join the ranks ! LIKE us on Facebook