Ender Bass Tab - Finch






Hey, this is my first tab, I'm 100% sure its correct... 
Ok, you hold out all the notes, dont keep strumming the notes,
 just hold them out

Thanks to my guitar teacher for helping me figure out this song.

Artist: Finch
Song: Ender
Album: What It Is To Burn


Intro/Verse
g|--------------------------------------------------|
d|--------------------------------------------------|
a|---------------------4-------------------4--------|
e|--------6-----------------------2-----------------|


Chorus

g|---------------------|
d|---------------------|
a|----------------4----|
e|---4------2----------|


Chorus (Heavy Distorted Part)

g|--------------------------------------------------|
d|--------------------------------------------------|
a|---------------------4--------------------4-------|
e|--------6------------------------2----------------|


Bridge (the part where there's no words, and a piano in the backround)

g|----------------------------------------------------|
d|----------------------------------------------------|
a|-----2---------------4----------------------4-------|
e|-----------------------------------4----------------|


Ending Chorus
g|--------------------------------------------------|
d|--------------------------------------------------|
a|------------------------------------------4-------|
e|--------4---------4h6------------2----------------|


Song Construction

Intro/Verse           (x6)
Chorus                (x2)
Intro/Verse           (x4)
Chorus                (x4)
Heavy Chorus          (x4)
Bridge                (x4)
Ending Chorus         (x4)