Flatline Tab - Fireball Ministry






FLATLINE

Tuned 1/2 step down       

          Riff 1: (Higher notes are for 2nd guitar, 
          they come in after a couple of repeats)
|----------------------------|
|----------------------------|
|-o-5h7777----------------o-|
|-o----------7--6-62h5555-o-|
|---3h5555------------------|
|------------5--4-40h3333---|

          Riff 2: 
          (Know that i think about it, 
    this might be a 5th lower)
|--------------------|
|--------------------|
|-o-7^------7^-----o-|
|-o----------------o-|
|--------------------|
|--------------------|

          Riff 3:       1============ 2============        
|----------------------|-------------|-------------|
|----------------------|-------------|-------------|
|-o------------------o-|-----------o-|-----------o-|
|-o-7--7--3-3--------o-|-----------o-|-----------o-|
|---5--5--1-1--3--3----|--5-3-5-3----|--5-3-5-3----|
|--------------1--1----|-------------|--3-1-3-1----|






Like us on Facebook