Master Of None Solo Bass Tab - Fireball Ministry






MASTER OF NONE- BASS SOLO

Tuned 1/2 step down

||------------------------------------------|
||----------------5h75-----------9^87575----|
||--5h7777-77775h7-------5h77777--------7---|
||------------------------------------------|

-----------------------------------7h97----|
----------------55------5---5-5h77---------|
--5h7777-77-75h7---55h77---7-7-------------|
-------------------------------------------|

---7h9999^9997-----------------------------|
--9-----------975---------7^7^5--75--------|
------------------7-5h7777-----75--7-------|
-------------------------------------------|

--7h9999-9997---------||
-------------975-75---||
-------------------7--||
----------------------||






Like us on Facebook