Sundown Intro (ver3) Tab - Fireball Ministry






Alright guys lots of fun to play so learn it!
Remember to use high distortion. but not too much overdrive
b-bend
p-palm mute

 E--p0-p0-8--p0-p0-6-p0-p0-8-p0-p0-6-11-b10-----|
 A----------------------------------------------|
 D----------------------------------------------|
 G----------------------------------------------|
 B----------------------------------------------|
 E----------------------------------------------|

 E--p0-p0-8-p0-p0-6--3-2-0-----------------------|
 A-------------------5-4-0-----------------------|
 D-------------------5-4-0-----------------------|    repeat 3 times
 G-----------------------------------------------|
 B-----------------------------------------------|
 E-----------------------------------------------|

 E--p0-p0-8-p0-p0-6-p0-p0-8-p0-p0-6-11-b10------|
 A----------------------------------------------|
 D----------------------------------------------|
 G----------------------------------------------|
 B----------------------------------------------|
 E----------------------------------------------|

 E--p0-p0-8-p0-p0-6--2--------------------------|
 A-------------------4--------------------------|
 D-------------------4--------------------------|
 G----------------------------------------------|
 B----------------------------------------------|
 E----------------------------------------------|






Like us on Facebook