Albi The Racist Dragon Tab - Flight Of The Conchords






Song: Albi The Racist Dragon
Artist: Flight Of The Conchords
Album: N/A
Tabbed By: Zapfire
Last Update:11-26-07 (Fixed a few tiny things, cleaned up)


Intro:
e|-3--33--3---|-3--33--3---|-3--33--3--|-1--11--1--|
B|-5--55--5---|-5--55--5---|-3--33--3--|-3--33--3--|
G|-5--55--5---|-4--44--4---|-3--33--3--|-2--22--2--|
D|------------|------------|-----------|-----------|
A|------------|------------|-----------|-----------|
E|------------|------------|-----------|-----------|

e|---------1h3p1-----|-2-|
B|------1--------1---|-3-|
G|----1--1-----------|-2-|
D|--3----------------|-0-|
A|-------------------|----|
E|-------------------|----|

Play this until "They just don't like you and I"

e|-3--33--3---|-3--33--3---|-3--33--3--|-1--11--1--|
B|-5--55--5---|-5--55--5---|-3--33--3--|-3--33--3--|
G|-5--55--5---|-4--44--4---|-3--33--3--|-2--22--2--|
D|------------|------------|-----------|-----------|
A|------------|------------|-----------|-----------|
E|------------|------------|-----------|-----------|

e|-1--11--1--|-3--33--3--|
B|-1--11--1--|-3--33--3--|
G|-1--11--1--|-4--44--4--|
D|-----------|-0--00--0--|
A|-----------|-----------|
E|-----------|-----------|

"Because were different to them"
e|-12-|
B|-12-|
G|----|
D|----|
A|----|
E|----|

Rest of Song

e|-3--33--3---|-3--33--3---|-3--33--3--|-1--11--1--|
B|-5--55--5---|-5--55--5---|-3--33--3--|-3--33--3--|
G|-5--55--5---|-4--44--4---|-3--33--3--|-2--22--2--|
D|------------|------------|-----------|-----------|
A|------------|------------|-----------|-----------|
E|------------|------------|-----------|-----------|

e|-1--11--1--|-3--33--3--|
B|-1--11--1--|-3--33--3--|
G|-1--11--1--|-4--44--4--|
D|-----------|-0--00--0--|
A|-----------|-----------|
E|-----------|-----------|

Final Strums
(Bret seems to finish with different chords so I just play the following)
e|-0-|
B|-1-|
G|-2-|
D|-2-|
A|-0-|
E|-0-|(Strum quickly 10-12 times)

There you have it, very, very simple song. Good luck and if you have any questions, or 
just send me a PM on UG. I'm Zapfire once again and please enjoy my tab.

Lyrics:
In the marmalade forest! (forest)
Between the make beleive trees!
In a cottage cheese cottage?
Lives Albi, Albi, Albi, Albi
Albi, the racist dragon.

Part 6

And so, all of the villagers chased Albi
The racist dragon, into a very cold,
and very scary cave.
And it was so cold, and so scary in there.
That Albi began to cry, Dragon tears...
Which as we all know turn into Jelly Beans!

Anyway, at that moment, he felt a tiny little hand rest upon his tail.
And he turned around.
Who should that little hand belong to,
but the badly burnt Albanian boy from the day before.

"What are you doing here, I thought I killed you yesterday?"
Grumbled Albi, quite racistly.

"No Albi, you didn't kill me with your dragon flames,
I crawled to safety. But you did leave me very badly disfigured."
Laughed the boy.

"Why are you crying so?"
"I'm crying because all of those horrible villagers
chased me into this scary cave. I think it's because im so racist.
Get your hand off my tail, you'll make it dirty."

"No Albi, it's not because of your racism that they chased you here.
They chased me here too when I became all disfigured like this.
They just don't like you and I,
well, because, were different to them."

And at that moment Albi cried a single tear,
which turned into a jelly bean, all the colors of the rainbow!
And suddenly, he wasn't racist, anymore.

So they sat in the cave (cave)
And ate bubblegum pie, YUM!
Albi, the racist..
Well, not anymore...
Dragon...






Like us on Facebook