Business Time (ver3) Bass Tab - Flight Of The Conchords






see if you like it.  i'd love feedback.  i'm pretty sure this is right

G--------------------------------0-1-2-3-4--|
D-------------------------------------------|
A-------------------------------------------|       x 2
E---3-3----3-3-----3-3----3-3---------------|

verse
G---------------------------------------------------------------------------|
D---------------------------------------------------------------------------|
A---------------------------------------------------------------------------|
E----3-3------3-3-----etc.--------------------------------------------------|

Chorus
G----------------------------------------------------------------------------|
D--1-1-1-1-3-3-3-3-----------------------------------------------------------|
A----------------------------------------------------------------------------|
E--------------------3-3--3--3--3--3-3-3--3----------------------------------|

G----------------------------------------------------------------------------|
D-1-1-1-1-3-3-3-3------------------------------------------------------------|
A----------------------------------------------------------------------------|
E------------------3-3----3-3-0-1-2-3--3-3----3-3----------------------------|

verse
G---------------------------------------------------------------------------|
D---------------------------------------------------------------------------|
A----------------------------------0-1-2-3----------------------------------|
E----3-3-3-3-3-3-3-3--etc------3--------------------------------------------|

chorus

verse
G---------------------------------------------------------------------------|
D---------------------------------------------------------------------------|
A---------------------------------------------------------------------------|
E----3-3---3-3--------etc.--------------------------------------------------|






Like us on Facebook