Business Time Bass Tab - Flight Of The Conchords






 This is what Jemaine plays while Bret is playing the guitar.
 This is both the live version and the recorded version.
 They're the same.

   Its a very easy riff. You should have it in no time.
     Standard tuning, Eadg

                 Intro
g-----------------------------|
d-----------------------------|
a------------------1h2h3------| x2
E---3-3----3-3-1---------0----|


                 Verse
g-----------------------------|
d-----------------------------|
a-----------------------------| x21 haha
E--3-3----3-3-1---------------|


                Chorus
g-------------------------------------------------------------|
d-------------------------------------------------------------|
a----------------1-2-3-3-3-3-5-5-5-5----------3-3-3-3-5-5-5-5-|
E--3-3--3-3-1-3----------------------3-3--3-3-----------------|


 So this is all of it in order.

Intro

Verse

Chorus

Verse

Chorus

Verse

Chorus


   Thats it! Please rate.






Like us on Facebook