Frodo (ver2) Tab - Flight Of The Conchords






Artist: Flight Of The Conchords
Song: Frodo
Album: N/A
Tabbed: Zapfire

Simple and hilarious song, here you go.

Intro/Verse
E|------------------------------------------------|
B|-----1-----------1----------0-----------0-------|
G|----2-----------2----------2-----------2--------|
D|---2-----------2----------2-----------2---------|
A|-0----------------------------------------------|
E|-------------3----------2------------1----------|x5

Bridge

E|-----1---------1---------0---------0-------|
B|----2-2-------2-2-------2-2-------2--------|
G|---2---2-----2---2-----2---2-----2---------|
D|-0-------0-3-------3-2-------2-1-----------|
A|-------------------------------------------|
E|-------------------------------------------|x2


Chorus Part 1
E|-------------------------------------------------|
B|-----1----------1---------0--------0-------------|
G|----2-2--------2-2-------2-2------2-2------------|
D|---2---2------2---2-----2---2----2---2-----------|
A|-0-------0---------------------------------------|
E|-----------3--------3-2-------2-1------1---------|x1

Chorus Part 2
(Stum quickly up and down)
E|----|
B|----|
G|--5-|
D|--5-|
A|--3-|
E|----|

Talking Verse
E|------------------------------------------------|
B|-----1-----------1----------0-----------0-------|
G|----2-----------2----------2-----------2--------|
D|---2-----------2----------2-----------2---------|
A|-0----------------------------------------------|
E|-------------3----------2------------1----------|x6

Rap Bridge
E|------|
B|------|
G|--5-3-|
D|--5-1-|
A|--3-1-|
E|------|

Rap
E|-----------------|
B|-----------------|
G|-----------------|
D|-----------------|
A|--5-5-3-3-1-1-0-0|
E|-----------------|x5

Final Rap
E|------------------------------------------------|
B|-----1-----------1----------0-----------0-------|
G|----2-----------2----------2-----------2--------|
D|---2-----------2----------2-----------2---------|
A|-0----------------------------------------------|
E|-------------3----------2------------1----------|x3

There you have it, very simple. Questions, Comments or whatever else goes to 

steveon1413@yahoo.com, good luck.

Lyrics:
Intro Verse:

Frodo...don't wear the ring
I know it's very tempting
Yes, you will appear to dissappear
But the dark riders, they'll know you're there
Yes, Lord Sauron, has many spies
Many spies, have many eyes!

Chorus:

One ring to find them, to find them
One ring to rule them all
One ring to find them, one to find them
(Screamed)One ring to rule them all!
Yeah yeah yeah yeah yeah
You got to rule them,
Frodo, rule them with the ring
Come on, come on
Rule them, with the ring dude!

Spoken Conversation Verse:

If you want him, come and claim him.
I am not a conjurer of cheap tricks!
Quickly, hide frodo!
Do they Gandalf?
Ah, Gandalf, my old friend...
I like what you have done with your beard.
There's thousands of them and only about 8 of us,
We'll never make it.
OH NO!
...
We made it.
OH HOORAY!
You have my sword, you have my bow, and my axe

Rap:

Yo, Frodo, why you go wear the ring?
Yo, power-jewelry is that your new thing?
I know its hard, when your little balls,
frequently fall and lie so close to the floor.
Try to lead the fellowship to the gates of Mordor
The Fellowship, YEAH the Fellowship!
But I don't rap about b*****s and hos
I rap about Witches and trolls
Passed on the words of the elven king
Frodo Don't wear the ring

Outro:

Frodo, don't wear the ring
The magical bling bling!
Dwarves, Elves, Human beings
We all know it's Lord Of The Rings!






Like us on Facebook