Humans Are Dead Tab - Flight Of The Conchords






Here's the basic overview of the riffs in this song, they make the song so good with the 
really
Enjoy!

Standard Tuning.

the year 2000..... e-------------------------------------|
                   b-------------------------------------|
                   g-------------------------------------|
                   d-------------------------------------|
                   a-------------------------------------|
                   e--5--5--5--5--5--5--5--5--5--5--etc.-|

the humans are dead...
                   e--5--------5--------8--------5--|
                   b--5--------6--------8--------6--|
                   g--5--------7--------9--------7--|
                   d--7--------7--------10-------7--|
                   a--7--------5--------10-------5--|
                   e--5--------5--------8--------5--|

...work for too long with unreasonable hours...
e--1--------3--------5--------8--------1--------3--------1--------0--|
b--1--------3--------6--------8--------1--------3--------1--------0--|
g--2--------4--------7--------9--------2--------4--------2--------1--|
d--3--------5--------7--------10-------3--------5--------3--------2--|
a--3--------5--------5--------10-------3--------5--------3--------2--|
e--1--------3--------5--------8--------1--------3--------1--------0--|

...dead dead dead dead dead dead dead d.
                   e-------------------------------|
                   b-------------------------------|
                   g-------------------------------|
                   d-------------------------------|
                   a-------------------------------|
                   e--5--5--5--5--5--5--5--5--5s0--|

tabbed by Heather D






Like us on Facebook