Hurt Feelings ver2 Tab - Flight Of The Conchords






-------------------------------------------------------------------------
Hurt Feelings - Flight of the Conchords
-------------------------------------------------------------------------
Tabbed by: Andy

Tuning: Standard
CAPO: 3rd Fret

(Other than the chords below, this tab is NOT written in relation to the capo)

[Play this main bass line through the intro]
e|--------------------------------------------------------------------------|
B|--------------------------------------------------------------------------|
G|--------------------------------------------------------------------------|
D|--------------------------------------------------------------------------|
A|--------------------------------------------------------------------------|
E|-3-3-3-3-3-3-3-10/11-11-11-11-11-11-11/10-6-6-6-6-6-6-6-6-8-8-8-8-8-8-6-5-|

Some people say that rappers dont have feelings
We have feelings. (We have feelings)
Some people say that we are not rappers. (Were rappers.)
That hurts our feelings.
(Hurts our feelings when you say were not rappers.)

Some people say that rappers are invincible
Were vincible. (Were vincible.)
What you are about to hear are true stories
(Real experiences)

[For the last part of the intro just play the following]
e|----------------------------|
B|----------------------------|
G|----------------------------|
D|----------------------------|
A|----------------------------|
E|-3-3-3-3-3-3-6-5-3-3-3-3-3--|

Autobiographical raps.
Things that happened to us, All true
Bring the rhyme!

[Play this main bass line through the verses]
e|--------------------------------------------------------------------------|
B|--------------------------------------------------------------------------|
G|--------------------------------------------------------------------------|
D|--------------------------------------------------------------------------|
A|--------------------------------------------------------------------------|
E|-3-3-3-3-3-3-3-10/11-11-11-11-11-11-11/10-6-6-6-6-6-6-6-6-8-8-8-8-8-8-6-5-|

I make a meal for my friends, 
Try to make it delicious,
Try to keep it nutritious,

Create wonderful dishes.
Not one of them thinks about the way I feel
Nobody compliments the meal

[Now play power chords for the chorus]
e|--------------------------------------------------------------------------|
B|--------------------------------------------------------------------------|
G|---------------7/8-8-8-8-8-8-8/7------------------------------------------|
D|-5-5-5-5-5-5-5-7/8-8-8-8-8-8-8/7-8-8-8-8-8-8-8-8-10-10-10-10-10-10-8-7----|
A|-5-5-5-5-5-5-5-5/6-6-6-6-6-6-6/5-8-8-8-8-8-8-8-8-10-10-10-10-10-10-8-7----|
E|-3-3-3-3-3-3-3-------------------6-6-6-6-6-6-6-6-8--8--8--8--8--8--6-5----|

I got hurt feelings, I got hurt feelings
I feel like a prize a*****e
No one even mentions my casserole.
I got hurt feelings, I got hurt feelings.
You coulda said something nice about my profiteroles

[Verse]
e|--------------------------------------------------------------------------|
B|--------------------------------------------------------------------------|
G|--------------------------------------------------------------------------|
D|--------------------------------------------------------------------------|
A|--------------------------------------------------------------------------|
E|-3-3-3-3-3-3-3-10/11-11-11-11-11-11-11/10-6-6-6-6-6-6-6-6-8-8-8-8-8-8-6-5-|

Heres a little story to bring a tear to your eye,
I was shopping for a wetsuit to scuba dive,
But every suit I tried is too big around the thighs,
And the assistant suggested I try a ladies size

[Chorus]
e|--------------------------------------------------------------------------|
B|--------------------------------------------------------------------------|
G|---------------7/8-8-8-8-8-8-8/7------------------------------------------|
D|-5-5-5-5-5-5-5-7/8-8-8-8-8-8-8/7-8-8-8-8-8-8-8-8-10-10-10-10-10-10-8-7----|
A|-5-5-5-5-5-5-5-5/6-6-6-6-6-6-6/5-8-8-8-8-8-8-8-8-10-10-10-10-10-10-8-7----|
E|-3-3-3-3-3-3-3-------------------6-6-6-6-6-6-6-6-8--8--8--8--8--8--6-5----|

I got hurt feelings, I got hurt feelings
Im not gonna wear a ladies wetsuit Im a man!
I got hurt feelings, I got hurt feelings
Get me a small mans wetsuit, please

[This time stop after one beat on the 8th fret]
e|--------------------------------------------------------------------------|
B|--------------------------------------------------------------------------|
G|--------------------------------------------------------------------------|
D|--------------------------------------------------------------------------|
A|--------------------------------------------------------------------------|
E|-3-3-3-3-3-3-3-10/11-11-11-11-11-11-11/10-6-6-6-6-6-6-6-6-8---------------|
Its my birthday, 2003
Waitin for a call from my family
They forgot about me

[For the nice old-fashioned music box bit, play these chords in relation to the capo]
Em          C                    G
I got hurt feelings, I got hurt feelings
                              D
The day after my birthday is not my birthday, Mum

[Verse]
e|--------------------------------------------------------------------------|
B|--------------------------------------------------------------------------|
G|--------------------------------------------------------------------------|
D|--------------------------------------------------------------------------|
A|--------------------------------------------------------------------------|
E|-3-3-3-3-3-3-3-10/11-11-11-11-11-11-11/10-6-6-6-6-6-6-6-6-8-8-8-8-8-8-6-5-|

I call my friends and say, Lets go into town,
But theyre all too busy to go into town
So I go by myself, I go into town
Then I see all my friends, theyre all in town


I got hurt feelings, I got hurt feelings.
Theyre all lined up to watch that movie Maid in Manhattan.

[Verse - play less notes here until "Has your family ever" for more effect]
e|--------------------------------------------------------------------------|
B|--------------------------------------------------------------------------|
G|--------------------------------------------------------------------------|
D|--------------------------------------------------------------------------|
A|--------------------------------------------------------------------------|
E|-3-3-3-3-3-3-3-10/11-11-11-11-11-11-11/10-6-6-6-6-6-6-6-6-8-8-8-8-8-8-6-5-|

Have you ever been told that your a*s is too big?
Have you ever been asked if your hair is a wig?
Have you ever been told youre mediocre in bed?
Have you ever been told youve got a weird-shaped head?

Has your family ever forgotten you and driven away?
Once again, they forgot about J
Were you ever called homo cuz at school you took drama?
Have you ever been told that you look like a llama?

[Chords again for the last but to give it a sweet ending]
Em                 C
Tears of a rapper (tears of a rapper),
            G
Im crying tears of a rapper

Tears of a rapper






Like us on Facebook