If Youre Into It (ver2) Tab - Flight Of The Conchords






Can't go wrong with this one



Intro/Verse
     D U   D U     D U     D U     D U    D U     D U     D U
e|--------------------------------------------------------------|
B|---1-1---1-1-----1-1-----1-1-----1-1----1-1-----1-1-----1-1---|
G|---0-0---0-0-----0-0-----0-0-----2-2----2-2-----2-2-----2-2---|
D|---2-2---2-2-----2-2-----2-2-----2-2----2-2-----2-2-----2-2---|  x2?
A|-3-----------3----------------0--------------0----------------|
E|-------3--------------3---------------0--------------0--------|


Clearly, you can also just do simple chords for the verse and you'd hardly notice the difference

  C                 Am
   If you want me to, I can hang 'round with you
  C              Am
   If I only knew, That's what you're in to...


Chorus?
 C   C   C    C   C  Am   Am  Am    Am     Am    Am  C 
You and him, him and you, if that's what, you're in to

 C    C      C     C  C   Am     Am    Am      Am     Am        Am     C
Him hangin 'round, around you, you're hangin 'round, yea you're there too

...Or fancier

e|-----------------------------------------------------|
B|-1-1-1----1---1--1-1-1---1---1-----------------------|
G|-0-0-0----0---2--2-2-2---2---0-----------------------|
D|-2-2-2----2---2--2-2-2---2---2-----------------------|
A|-3-3-3----3---0--0-0-0---0-0-3-----------------------|
E|------------3----------------------------------------|


Hilarious stuff and if you can memorize all of Jemaine's lines in the song then go to town with it






Like us on Facebook