Most Beautiful Girl In The Room (ver2) Tab - Flight Of The Conchords






-------------------------------------------------------------------------------
         Most Beautiful Girl in the Room - Flight of the Conchords
-------------------------------------------------------------------------------
Tabbed by:Dylan_Black
Email:Dylan__Black@hotmail.com

Tuning:Normal

These are the chords for the Most Beutiful Girl in the Room from the Album "The Distant 
- EP" by Flight of the Conchords


The three chords that Bret plays thoughout the song are:

e-----------5--------------0---------------x--------------|
B-----------7--------------5---------------3--------------|
G-----------6--------------6---------------4--------------|
D-----------7--------------6---------------4--------------|
A-----------5--------------x---------------0--------------|
E-----------5--------------5---------------x--------------|

and the riff after the chords goes like this:

e---------9h10p9------7h9p7------5h7p5--------------------|
B-------------------------------------------5h7p5---------|
G---------------------------------------------------------|
D---------------------------------------------------------|
A---------------------------------------------------------|
E---------------------------------------------------------|

the only thing I'm not sure about is the breakdown I am pretty sure he is just playing 
chord 4 times each. This is a great song to play for the ladies, have fun

| /  slide up
|   slide down
| h  hammer-on
| p  pull-off
| ~  vibrato
| +  harmonic
| x  Mute note
===============================================================================






Like us on Facebook