Prince Of Parties Tab - Flight Of The Conchords






-------------------------------------------------------------------------------
PRINCE OF PARTIES - Flight of the Conchords
-------------------------------------------------------------------------------

Tabbed by: jxmxsc
Tuning: standard

This song is normally played on some kind of sitar, but this is a transcription for 
guitar. Theres also some weird effects and stuff, but if you want to make sound in reverse 
whatever, put your own spin on it :P

Intro:
e|----0~~~~~~~~~~----|
B|----2~~~~~~~~~~----|
G|----2~~~~~~~~~~----|
D|----2~~~~~~~~~~----|
A|----0~~~~~~~~~~----|
E|----0~~~~~~~~~~----|

Main Riff/ Verse/ Chorus (palm muted when singing, play around with the rhythym for the chorus)
e|------------------------------------------------|
B|------------------------------------------------|
G|------------------6-----------------------------|
D|---7---7-7--9--7-----7----5---5-5--4-4----------|
A|----------------------------------------7-7-7/--|
E|------------------------------------------------|

e|------------------------------------------------|
B|------------------------------------------------|
G|------------------6-----------------------------|
D|---7---7-7--9--7-----7----5---5-5--7-7-5--7-5---|
A|------------------------------------------------|
E|------------------------------------------------|

PRE BRIDGE THINGY (slightly palm muted)
e|------------------------------------------------|
B|---2222222222222222222222222222222222222222222--|
G|---2222222222222222222222222222222222222222222--|
D|---2222222222222222222222222222222222222222222--|
A|---0000000000000000000000000000000000000000000--|
E|------------------------------------------------|

BRIDGE THINGY:
e|------------------------------------------------|
B|----5-5-5-5/12-12-12-122-2-2-2/5.--------------|
G|----5-5-5-5/12-12-12-122-2-2-2/5.--------------|
D|----5-5-5-5/12-12-12-122-2-2-2/5.--P-A-U-S-E---|
A|----3-3-3-3/10-10-10-10






Like us on Facebook