Think About It Think Think About It (ver3) Chords - Flight Of The Conchords






Verse Chords

-0--0--7---9---------------------|
-2--0--7---7---------------------|
-1--2--7---7---------------------|
-2--2--7---9---------------------|
-0-----9---7---------------------|
----2--7---0---------------------|

Chorus

-5--4--2----------------------------|
-7--5--3----------------------------|
-6--4--2----------------------------|
-7--6--4----------------------------|
-5--4--2----------------------------|
------------------------------------|

Long live Hans Squigliago






Like us on Facebook