Zece - Florin Chilian




capodastru pe IV 

Intro:

E||--------------3--1----0--|---------------------------|
B||-----------1-------------|--3--1--0--1---------1--0--|
G||--------0----------------|-----------2----0h-2-------|
D||-----2-------------------|-----------2---------------|
A||--3----------------------|--2------------------------|
E||-------------------------|---------------------------|

--------------------------|-----0----L--------------|--------------------------|
--------------0--1--0--1--|--3--1----L--3--1--------|--------1--------1--------|
--0-------0-2-------------|-----0----L--------0-----|-----0--------0--------0--|
-----3--------------------|----------------------2--|--3--------2--------0-----|
--------------------------|-----3----L--------------|--------------------------|
--------------------------|-------------------------|--------------------------|


----------------------------|-------3g5----3----0----L--|
-----------0--0g1--0--------|---------0-----0----0----L--|
--------0-------------0-----|----------------------------|
-----0----------------------|----------------------------|
----------------------------|----------------------------|
--3----------------------3--|--L-------------------------|


--------------3--1----0--|---------------------------|
-----------1-------------|--3--1--0--1---------1--0--|
--------0----------------|-----------2----0h-2-------|
-----2-------------------|-----------2---------------|
--3----------------------|---------------------------|
-------------------------|---------------------------|


--------------------------|-----0----L--------------|--------------------------|
--------------0--1--0--1--|--3--1----L--3--1--------|--------1--------1--------|
--0-------0-2-------------|-----0----L--------0-----|-----0--------0--------0--|
-----3--------------------|----------------------2--|--3--------2--------0-----|
--------------------------|-----3----L--------------|--------------------------|
--------------------------|-------------------------|--------------------------|


                                       ^    ^            
----------------------------|----------1----1----0--L--||
-----------0--0g1--0--------|----------1----1----------||
--------0-------------0-----|----------0----0----------||
-----0----------------------|--------------------------||
----------------------------|--------------------------||
--3----------------------3--|--L-----------------------||


Am         F                    C
Zece intamplari ciudate si-o minune
       G             
Te-au adus in casa, zece
 Am           Em         F
Zece pictori se tot mira
G             C
Cat esti de frumoasa

C G Am

Am             F           
Zece zile trec absurd de nu stiu
 C                 G                   
Nu stiu cum, nu stiu pe unde, nu stiu
Am              Em           F
Zece vieti de-as sta cu tine
G           C
Tot ar fi putine

C G Am

  Am          Em
Doua stele, paralele,
 F               G
Stele, lacrimi innodate si
  Am        Em
Lumina de la ele
 F      G    C
Pentru tine toate

C G Am

Am              Em
Patru printi cu trei castele
 F             G
Ape, lanturi fermecate si
Am        Em         F
Tot cerul peste ele
G             C
Pentru tine toate

Zece intamplari ciudate si-o minune
Te-au adus in casa, zece
Zece pictori se tot mira
Cat esti de frumoasa

Zece zile trec absurd de nu stiu
Nu stiu cum, nu stiu pe unde, nu stiu
Zece vieti de-as sta cu tine
Tot ar fi putine

Sapte zane, toate bune
Licurici, sperante-n noapte si
Piticii din poveste
Pentru tine toate

Noua magi in faptul serii
O potcoava sus departe, si
Comorile din suflet
Pentru tine toate

Zece intamplari ciudate si-o minune
Te-au adus in casa, zece
Zece pictori se tot mira
Cat esti de frumoasa

Zece zile trec absurd de nu stiu
Nu stiu cum, nu stiu pe unde, nu stiu
Zece vieti de-as sta cu tine
Tot ar fi putine


ĂŽnscrie-te la newsletter


Join the ranks ! LIKE us on Facebook