All Around Me Tab - Flyleaf






 Flyleaf
"All Around Me"

played in drop d...send me messages on my myspace if there are any problems

www.myspace.com/forgetyouiwishicould

intro

palm mute  guitar 1
e--------------------------------|
b--------------------------------|
g--------------------------------|
d-44444444---77777777----0000000-|
a-44444444---77777777----0000000-|
D-44444444---77777777----0000000-|


       guitar 2
e------0---------0-----|
B--------2-------------|
G---2----------2-------|
D-4--------------------|
A----------------------|
D----------------------|

           guitar 1
---------------------------------------------------------|
---------------------------------------------------------|
---------------------------------------------------------|
4444----7777----0000----2222----0000----11111111----0000-|
4444----7777----0000----2222----0000----11111111----0000-|
4444----7777----0000----2222----0000----11111111----0000-|


e------0--------------------------0-----------|------------|
B--------2---------2h3p2----------------------|-------2----|
G---2---------2---------------2-2-----1h2p1---|-----1----2-|
D-4---------4----2--------4-----------------4-|-4----------|
A---------------------------0-------4---------|------------|
D---------------------------------------------|------------|

Verse 1

--------------------------------      -----|
--------------------------------      -----|
--------------------------------      -----|
44444444----77777777----00000000      1111-|
44444444----77777777----00000000      1111-|
44444444----77777777----00000000 x2   1111-|

                                          elevens


"im Alive"

----------------|
----------------|
----------------|    x2
6----7----0-----|
6----7----0-----|
6----7----0-----|


  guitar 2

0--4--2--4--0--4--2--4-|
-----------------------|
-----------------------|
-----------------------|
-----------------------|
-----------------------|


 chorus
                                       elevens
-------------------------------------------------|
-------------------------------------------------|
-------------------------------------------------|
4444----7777----0000----2222----0000----11111111-|
4444----7777----0000----2222----0000----11111111-|
4444----7777----0000----2222----0000----11111111-|

-----------------------------------------|
-----------------------------------------|
-----------------------------------------|
4444----0000----2222----11111111----0000-|
4444----0000----2222----11111111----0000-|
4444----0000----2222----11111111----0000-|

then repeat in this order

verse
refrain
chrous
refrain
chorus

ĂŽnscrie-te la newsletter


Join the ranks ! LIKE us on Facebook