There For You Tab - Flyleaf






intro/verse
e|-------------------------------|
b|--5----5-3-----3-8---7------7--|
g|----0------0-------------0-----|
d|-------------------------------|
a|--3--3---2---2---7---5----5----|
d|-------------------------------|


e|----------------------------------------------|
b|--5----5-3-----3-7---7------7--87--------7----|
g|----0------0-------------0-----------0--------| (x 2)
d|----------------------------------------------|
a|--3--3---2---2---5---5----5------------5------|
d|----------------------------------------------|


chorus
e|--------------------------------------------------------------|
b|--------------------------------------------------------------|
g|-5----------------4-----4-----------------4-----4-----------4-|
d|-5----------5--4--4-----4-----5--4--5--4--4-----4-----5--4--4-|
a|-3----------5--4--2-----2-----5--4--5--4--2-----2-----5--4--2-|
d|------------5--4--------------5--4--5--4--------------5--4----|
           "i wanna be....someone.....runs deeper.....i wanna be.."


Verse

chorus

then a bit i couldnt work out

e|------------------------------|
b|------------------------------|
g|-4-4-4-4-4-4------------------|
d|-4-4-4-4-4-4--5-5-5-5-5-5-----| x3
a|-2-2-2-2-2-2--5-5-5-5-5-5-----|
d|--------------5-5-5-5-5-5-----|

chorus x2






ĂŽnscrie-te la newsletter


Join the ranks ! LIKE us on Facebook