Hey Now (ver3) Tab - Fm Static






Song: Hey Now (hidden track)
Artist: FM Static
Album: What are you Waiting For
Web Site: www.fmstatic.com
Country: Canada

Tuning:
EADGBE

x - Mute
p - pull off
h - hammer

Play all Bar chords:

     D     F#m     Bm     A     G
E----5------2------2------5-----3---|
B----7------2------3------5-----3---|
G----7------2------4------6-----4---|
D----7------4------4------7-----5---|
A----5------4------2------7-----5---|
E----5------2------2------5-----3---|

You could also play easier...but it doesn't sound the same:

     D     F#m     Bm     A     G
E----x------x------x------x-----x--------------------------|
B----x------x------x------x-----x--------------------------|
G----7------x------4------x-----x--------------------------|
D----7------4------4------7-----5--------------------------|
A----5------4------2------7-----5--------------------------|
E----x------2------x------5-----3--------------------------|

Real Intro:

E-----------------------------------------------------|
B-----------------------------------------------------|
G-----------------------------------------------------|
D----------5/7-7-7/9-7--------------------------------|
A--5-5-9-5-------------5-9-5-9/10-10-9-9--------------|
E-----------------------------------------------------|

E-----------------------------------------------------|
B-----------------------------------------------------|
G-----------------------------------------------------|
D----------5/7-7-7/9-7--------------------------------|
A--5-5-9-5-------------5-9-5-9h10p9-9h10p9------------|
E-----------------------------------------------------|

Alternate(Easier Intro):

E-----------------------------------------------------|
B-----------------------------------------------------|
G-----------------------------------------------------|
D--0-0-4-0-4/7-7-7/9-7-0-4-0-4/5-5-4-4----------------|
A-----------------------------------------------------|
E-----------------------------------------------------|

E-----------------------------------------------------|
B-----------------------------------------------------|
G-----------------------------------------------------|
D--0-0-4-0-4/7-7-7/9-7-0-4-0-4h5p4-4h5p4--------------|
A-----------------------------------------------------|
E-----------------------------------------------------|

Verse 1:
  D              F#m
I met you at the club that night
Bm                  A
around was spinning records

and my heart said
D
hey now
    F#m
hey now
    Bm
hey now

hey now
G
yaaaow

Verse 2:
     D                       F#m
you said you were pleased to meet me
            Bm                  A
through the sweet smell of your perfume

blew me
D
away now
     F#m
away now
     Bm
away now

away now
G
yaaaow

Verse 3:
D             F#m
later on that week we went out,
Bm               A
talked under the stars until the next
D
day now
    F#m
day now
    Bm
day now

day now
G
yaaaow

Verse 4:
D                  F#m
you drank your fruitopia
    Bm           A
and we never ran out of things to
D
say now
    F#m
say now
    Bm
say now

say now
G
yaaow

Bridge:
D             F#m
any minute im not with you
  Bm               A
I hope I'll see you soon
           D               F#m
theres just something that happens
         Bm            G
when you walk into the room

Chorus:
D                    F#m
and instantly i feel so complete
           Bm                       A
it hits me right about the time you kiss my cheek
        D
and you give me this feeling
         F#m
its like no other feeling
       Bm               G
but it knocks me off my feet

G                         A
please dont ask me what i like about you
          D     F#m    Bm        A
cause its every little thing you do
    G              A               D F#m Bm A   D F#m Bm A
and thats just the way you make me feel

Verse 5:
D                 F#m
and i dont think
               Bm         A
that there are any others out there like you
D          F#m                    Bm
and i wont blink cause that would mean
               G
i would miss a second beside you

Bridge:
D         F#m             Bm
and maybe you know what i mean
         A              D
or maybe this is just a dream
        F#m                 Bm
i pinch myself just to make sure
             A                  D
but im still here and there you are
         F#m             Bm
i wonder why we just met now
        A                    D
it just kind of happened somehow
            F#m          Bm
but here we are together and
               A
thats all that matters in the end

Chorus:
D                    F#m
and instantly i feel so complete
           Bm                       A
it hits me right about the time you kiss my cheek
        D
and you give me this feeling
         F#m
its like no other feeling
       G
but it knocks me off my feet

G                          A
please dont ask me what i like about you
          D     F#m    Bm        A   G
cause its every little thing you do
                   A               D F#m Bm A  D F#m Bm A
and thats just the way you make me feel

G             A
you can never ask for too much
         D          F#m        Bm           A         G
cause id travel the world just to feel your touch and
               A
thats just the way you make me feel

D F#m Bm A

D F#m Bm A

D F#m Bm A   D

Also there is another way for the cool guitar bridge thing....
I like it better but it might sound weird to some people:

E-----------------------------------------------------|
B-----------------------------------------------------|
G--------------7-7-7----------------------------------|
D--5-5-5-7-7-7-7-7-7-7-9-7----------------------------|
A--5-5-5-7-7-7-5-4-x-7-9-7----------------------------|
E--3-3-3-5-5-5-----7-5-7-5----------------------------|

That's it....I hope you like it.....I found the other tabs for this song....and some 
where right.....but they didn't mention everything....so here is all the options I know.

I give most of the credit to people who did the versions before this one..
But I also take credit for changes.

Thank you very much,
God Bless,
master_penguin






Like us on Facebook