Moment Of Truth Tab - Fm Static






Aight, this is my first tab! So go easy on me! :-)

Band-FM Static
Song-Moment of Truth
Album-Critically Ashamed
Capo 4

All tabs and chords relative to capo
    EADGBE
A=  xx22xx
F#m=244xxx
D=  x577xx
E=  x799xx

Intro Riff
E----------------------------------------|
B----------------------------------------|
G---6-4-2-1-2-2-4-4---6-4-2-1-2----2-1---|
D-------------------------------2------2-|
A----------------------------------------|
E----------------------------------------|

Verse/Chorus Chord Progression
A F#m D E

Solo Riff A- Lead Into First Chorus
(eigth notes)
E--------------------|
B--2-0---2-0---2-0---|
G------2-----2-----2-|
D--------------------|
A--------------------|
E--------------------|

Solo Riff B- Second Chorus
(quarter notes)
E---0---0---0---------------------------------|
B-------------2-0-----------------------------|
G-2---2---2-----------------------------------|
D---------------------------------------------|
A---------------------------------------------|
E---------------------------------------------|


Solo Riff C- Between Choruses
E-----------------------------------------------------------------|
B-----------------------------------------------------------------|
G---2-2-4-4-6-6---2-2-4-4-2-----2-2-4-4-6-6--4-2-2-2-4---1-1------|
D---------------------------2--------------------------4-----4-2--|
A-----------------------------------------------------------------|
E-----------------------------------------------------------------|


Solo Riff D- During Last Chorus
(eigth notes)       * (quarter notes)                 (repeat from *)
E-------------------|---0---0---0------------------------0-0-------|
B--2-0---2-0---2-0--|-------------2-0--2-0---2-0---2-0-------2-2-0-|
G------2-----2------|-2---2---2------------2-----2-----2-----------|
D-------------------|----------------------------------------------|
A-------------------|----------------------------------------------|
E-------------------|----------------------------------------------|






Like us on Facebook