Notion Tab - Fm Static






Artist: Fm Static
Song: The Notion
Album: What Are You Waiting For?
Tuning: Drop D
Tabbed By: Brad


/Intro/

e|-------------------------------------|
b|-------------------------------------|
g|---------7-XX-7------------XXX-7-9-7-|
d|-0-2-4-0-X-XX-X----0-2-4-0-XXX-X/XX-|  (x2)
a|-0-2-4-0-5-XX-5----0-2-4-0-XXX-5-7-5-|
D|-0-2-4-0-----------0-2-4-0-XXX-------|


/Verse/

e|--------------------|
b|--------------------|
g|--------------------|
d|-0-0--5-5--7-7--9-9-|   (x2)
a|-0-0--5-5--7-7--9-9-|
D|-0-0--5-5--7-7--9-9-|

/Pre-Chorus/

e|-----------------------------------------------|
b|-----------------------------------------------|
g|-----------------------------------------------|
d|-00-55555555-99999999-77777777-00-555555-9-9-9-|
a|-00-55555555-99999999-77777777-00-555555-9-9-9-|
D|-00-55555555-99999999-77777777-00-555555-9-9-9-|


/Chorus/

e|-----------------------------------------|
b|-----------------------------------------|
g|-----------------------------------------|
d|-0-------4------5------0-------4------55-|
a|-0-(x16)-4-(x8)-5-(x8)-0-(x16)-4-(x8)-55-|
D|-0-------4------5------0-------4------55-|


INTRO
VERSE
PRE-CHORUS
CHORUS

/Bridge/

e|--------------------------------|    |-------------------------------|
b|--------------------------------|    |-------------------------------|
g|-7/9/7--7/9/7--7/9/7--12-11-9-6-|    |--7/9/7--7/9/7--7/9/7--12-11-6-|
d|--------------------------------|then|-------------------------------|
a|---------------------------(x2)-|    |-------------------------------|
D|--------------------------------|    |-------------------------------|

thats about it.

For the chorus, you can throw in some muted notes in there. just listen for it.
And for the ending, just speed up the intro. And then end on those first
4 power chords.

THE END.






Like us on Facebook